Green Day - Holiday Chords & Tabs

 

Holiday Chords & Tabs

Green Day Chords & Tabs

Version: 6 Type: Bass Tab 0 ratings
1 star 2 stars 3 stars 4 stars 5 stars
comments

Holiday Bass Tab

Standard tuning.

I've looked at the other tabs on this site, and none of the bass or guitar solo's are right.

\=Slide down
/=Slide up
X=Mute string
~=Let ring

Intro: Guitar only

verse: 
[---------------------------------------------|
[--------------------------------------------|
[---8-8\--4-4-----6-6-6-----------------------|
[-------------4-4-----------------------------| x4

[---------------------------------------------|
[--------------------------------------------|
[---8-8\--4-4-----6-6-6\-3-3-3-3-3-3-3-3------|
[-------------4-4-----------------------------|

[---------------------------------------------|
[--------------------------------------------|
[---8-8\--4-4-----6-6-6-----------------------|
[-------------4-4-----------------------------| x2

[---------------------------------------------|
[--------------------------------------------|
[---8-8\--4-4-----6-6-6/-3-3-3-3-3-3-3-3\-----|
[-------------4-4-----------------------------|

Chorus:
[----------------------------------------------------------------------|
[---------------------------------------------------------------------|
[-----------4-4-4-4---------6-6-6-6---------4-4-4-4---------3-3-3-3-3-X|
[---1-1-1-1---------4-4-4-4---------1-1-1-1---------4-4-4-4------------|

Verse:

*Guitar starts, then bass enters*

[---------------------------------------------|
[--------------------------------------------|
[---8-8\--4-4-----6-6-6-----------------------|
[-------------4-4-----------------------------| x2

[---------------------------------------------|
[--------------------------------------------|
[---8-8\--4-4-----6-6-6\-3-3-3-3-3-3-3-3------|
[-------------4-4-----------------------------|

[---------------------------------------------|
[--------------------------------------------|
[---8-8\--4-4-----6-6-6-----------------------|
[-------------4-4-----------------------------| x2

[---------------------------------------------|
[--------------------------------------------|
[---8-8\--4-4-----6-6-6\-3-3-3-3-3-3-3-3/-----|
[-------------4-4-----------------------------|
[ Tab from: http://www.guitartabs.cc/tabs/g/green_day/holiday_btab_ver_6.html ]
Chorus:
[----------------------------------------------------------------------|
[---------------------------------------------------------------------|
[-----------4-4-4-4---------6-6-6-6---------4-4-4-4---------3-3-3-3-3-X|
[---1-1-1-1---------4-4-4-4---------1-1-1-1---------4-4-4-4------------|

[------------| 
[------------| 
[---3\-------| 
[------------| 

Bridge:
[---------------------------------------------|
[-----------------1-------------1--3---------|
[------------4\-1---3-------------3-----------|
[---1-1/-4-4-----------1-1/-4-4---------------| x2

Guitar solo:

[----------------------------------------------------------------------|
[---------------------------------------------------------------------|
[---8-8-8-8\-4-4-4-4---------6-6-6-6/-8-8-8-8-4-4-4-4---------3-3-3-3/-|
[--------------------4-4-4-4--------------------------4-4-4-4----------|

[--------------------------|
[--------------------------|
[---8-8-8-8-8-8-8-8\-------|
[--------------------------|

Bass solo:
[---------------------------------------------|
[-----------------1-------------1--3---------|
[------------4\-1---3-------------3-----------|
[---1-1/-4-4-----------1-1/-4-4---------------| x6

[---------------------------------------------|
[--------------------------------------------|
[---0/3-3-3-3-3-3-3-3-0/3-3-3-3-3-3-3-3\------|
[---------------------------------------------|

Chorus:
[----------------------------------------------------------------------|
[---------------------------------------------------------------------|
[-----------4-4-4-4---------6-6-6-6---------4-4-4-4---------3-3-3-3-3--|
[---1-1-1-1---------4-4-4-4---------1-1-1-1---------4-4-4-4------------|

[----------------------------------------------------------------------|
[---------------------------------------------------------------------|
[-----------4-4-4-4---------6-6-6-6---------4-4-4-4---------3(x15)-3/--|
[---1-1-1-1---------4-4-4-4---------1-1-1-1---------4-4-4-4------------|

Outro:
[---------------------------------------------|
[--------------------------------------------|
[---8-8\--4-4-----6-6-6-----------------------|
[-------------4-4-----------------------------| x2

[----------------------------------------------|
[------------------3--------------------------|
[---8-8\-4-4/-6\-3-----------------------------|
[--------------------1~------------------------|

This is how i play it and it sounds cool. THis is my second tab, so please rate.
Comments