Green Day - Holiday Chords & Tabs

 

Holiday Chords & Tabs

Green Day Chords & Tabs

Version: 5 Type: Bass Tab 0 ratings
1 star 2 stars 3 stars 4 stars 5 stars
comments

Holiday Bass Tab

PLease Rate!

Riff 1
[----------------------------------------------------------------|
[---------------------------------------------------------------|
[-88--44------666------------------------------------------------|
[---------44-----------------------------------------------------|
X3

Riff 2
[----------------------------------------------------------------|
[---------------------------------------------------------------|
[-88--44---------------------------------------------------------|
[---------44--888------------------------------------------------|
X1

Riff 1 X 1
Riff 2 X 1

Riff 3
[----------------------------------------------------------------|
[---------------------------------------------------------------|
[-88--44------666------------------------------------------------|
[---------44------------8888888888888888-------------------------|

Riff 1 X 1
Riff 2 X 1
Riff 3 X 1

Chorus
[----------------------------------------------------------------|
[---------------------------------------------------------------|
[------4444------6666------4444----------------------------------|
[-1111------4444------1111------4444/88888-----------------------|
X1

Riff 1 X 3
Riff 2 X 1
Riff 3 X 1
Riff 1 X 1
Riff 2 X 1
Riff 3 X 1
Chorus X 1

Bridge
[----------------------------------------------------------------|
[---------------------------------------------------------------|
[-----------4-6-3----------6---8\--------------------------------|
[-1-1-4-4-6--------1-1-4-4---8-----------------------------------|
X2
[ Tab from: http://www.guitartabs.cc/tabs/g/green_day/holiday_btab_ver_5.html ]
Guitar solo
[----------------------------------------------------------------|
[---------------------------------------------------------------|
[-4444-----------88-66-4444--------------------------------------|
[------4444-8888------------4444-8888-8888-8888-8888-------------|
X1

Bass solo (same as bridge)
[----------------------------------------------------------------|
[---------------------------------------------------------------|
[-----------4-6-3----------6---8\--------------------------------|
[-1-1-4-4-6--------1-1-4-4---8-----------------------------------|
X6

Bass solo pt. 2
[----------------------------------------------------------------|
[---------------------------------------------------------------|
[----------------------------------------------------------------|
[-88888888888888888888888888888888-------------------------------|

Chorus X2

then...
[----------------------------------------------------------------|
[---------------------------------------------------------------|
[----------------------------------------------------------------|
[-888888888888888888888888---------------------------------------|

Ending
[----------------------------------------------------------------|
[---------------------------------------------------------------|
[-88--44------666------------------------------------------------|
[---------44-----------------------------------------------------|
X3

[----------------------------------------------------------------|
[---------------------------------------------------------------|
[-88--44--6-----8------------------------------------------------|
[------------8-----1~(hold note)---------------------------------|
X1
Comments