Green Day - Holiday Chords & Tabs

 

Holiday Chords & Tabs

Green Day Chords & Tabs

Version: 3 Type: Bass Tab 0 ratings
1 star 2 stars 3 stars 4 stars 5 stars
comments

Holiday Bass Tab

   
this is right 
                 \slide down
                  
Intro/1st verse at: 0:13
         
         G------------------------------------------------------------------------------------
         D------------------------------------------------------------------------------------
         A--88-44----6666--88-44----6666--88-44----6666-88-44--6666-88-44---3333--88-44---6666
         E--------44-------------44-------------44-----------44----------44-------------44----
         intro/verse part 2
         G------------
         D------------
         A------------
         E-33-33-33-33     x2
 
        verse
         
        G--------------------------------------------------------------
        D--------------------------------------------------------------
        A--88-44---6666--88-44--3333-88-44--6666-----------------------
        E-------44------------44----------44----33-33-33-33-33-33-33-33
[ Tab from: http://www.guitartabs.cc/tabs/g/green_day/holiday_btab_ver_3.html ]
        Chorus                                            there ones not elevens
        
        G--------------------------------------------------
        D--------------------------------------------------      
        A--------------44-44-44-44-------------66-66-66-66-
        E--11-11-11-11-------------44-44-44-44-------------          x2 
                                                                              
          part 2                                                                                                    
        G-------------------------------------------------                         
        D-------------------------------------------------
        A-------------44-44-44-44-------------33-33-33-33-
        E--11-11-11-11------------44-44-44-44-------------

          Verse x2 without the threes on the first time round
          chorus once
          part 2 chorus

        Bridge
        G------------------------------
        D------------------------------
        A-----------------------4---6--
        E-66-66-66-66----11-3-44--6---8
        
        Bridge part 2
        G---------------
        D---------------
        A----------6---7
        E--11-3-44---8--

         bridge part 3
        G---------------
        D---------------
        A----------4---6
        E--11-3-44---6---8

        bridge part 2
     
       solo Backing

       G---------------------------------------------
       D---------------------------------------------
       A--44-44-44-44-------------66-66-66-66-888-666
       E--------------44-44-44-44--------------------

       G-----------------------------------------------------------------
       D--------------------------------------------------5\101010101010-
       A---44-44-44-44------------33-33-33-33-33-33-33-33---------------8~
       E--------------44-44-44-44---------------------------------------- 

     
       bridge part 3
       Bridge part 2
       bridge part 3
       Bridge part 2 
       bridge part 3
       Bridge part 2
       bridge part 3
       Bridge part 2
       bridge part 3
       bridge part 2
       bridge part 3
       bridge part 2  
       Chorus x2
       intro/verse part 2 x2
       verse but dont play the threes on the end
 
      
 enjoy 
Comments