Green Day - Holiday Chords & Tabs

 

Holiday Chords & Tabs

Green Day Chords & Tabs

Version: 2 Type: Bass Tab 6 ratings
1 star 2 stars 3 stars 4 stars 5 stars
comments

Holiday Bass Tab

GreenDay 
Holiday
American Idiot

Intro/Verse 1
-------------------------------------------------------------------------------
-------------------------------------------------------------------------------
-8-8-4-4----6-6-8-8-4-4-----6-6-8-8-4-4-----6-6-8-8-4-4-----6-6-8-8-4-4-----6-6
---------4-4-------------4-4------------4-4-------------4-4-------------4-4----

------------------------------------------------------------
------------------------------------------------------------
8-8-4-4----6-6-8-8-4-4----6-6-8-8-4-4----6-6-3-3-3-3-3-3-3-3
--------4-4-----------4-4-------------4-4------------------- x2

Chorus
----------------------------------------------------------------
----------------------------------------------------------------
---------4-4-4-4---------6-6-6-6---------4-4-4-4---------3-3-3-3
-1-1-1-1---------4-4-4-4---------1-1-1-1---------4-4-4-4--------

Verse 2
-------------------------------------------------------------------------------
-------------------------------------------------------------------------------
-8-8-4-4----6-6-8-8-4-4-----6-6-8-8-4-4-----6-6-8-8-4-4-----6-6-8-8-4-4-----6-6
---------4-4-------------4-4------------4-4-------------4-4-------------4-4----

------------------------------------------------------------
------------------------------------------------------------
8-8-4-4----6-6-8-8-4-4----6-6-8-8-4-4----6-6-3-3-3-3-3-3-3-3
--------4-4-----------4-4-------------4-4------------------- x2

Chorus
----------------------------------------------------------------
----------------------------------------------------------------
---------4-4-4-4---------6-6-6-6---------4-4-4-4---------3-3-3-3
-1-1-1-1---------4-4-4-4---------1-1-1-1---------4-4-4-4--------
[ Tab from: http://www.guitartabs.cc/tabs/g/green_day/holiday_btab_ver_2.html ]
Guitar Solo
---------------------------------------------------------------
---------------------------------------------------------------
-4-4-4-4---------6-6-6-6--------4-4-4-4---------6-6-6-6-3-3-3-3
---------4-4-4-4--------1-1-1-1---------4-4-4-4----------------

Bass Solo
----------------------------------------------------------------------
----------------------------------------------------------------------
-----------4---6-------------4---8------------4---6-------------4---8-
-1-1-1-4-4---6---8-1-1-1-4-4---6----1-1-1-4-4---6---8-1-1-1-4-4---6---

----------------------------------------------------------------------
----------------------------------------------------------------------
-----------4---6-------------4---8------------4---6-------------4---8-
-1-1-1-4-4---6---8-1-1-1-4-4---6----1-1-1-4-4---6---8-1-1-1-4-4---6---

----------------------------------------------------------------------
----------------------------------------------------------------------
-----------4---6-------------4---8------------4---6-------------4---8-
-1-1-1-4-4---6---8-1-1-1-4-4---6----1-1-1-4-4---6---8-1-1-1-4-4---6---

Chorus
----------------------------------------------------------------
----------------------------------------------------------------
---------4-4-4-4---------6-6-6-6---------4-4-4-4---------3-3-3-3
-1-1-1-1---------4-4-4-4---------1-1-1-1---------4-4-4-4--------

Verse 3
-------------------------------------------------------------------------------
-------------------------------------------------------------------------------
-8-8-4-4----6-6-8-8-4-4-----6-6-8-8-4-4-----6-6-8-8-4-4-----6-6-8-8-4-4-----6-6
---------4-4-------------4-4------------4-4-------------4-4-------------4-4----

----------------------------------------------------
----------------------------------------------------
8-8-4-4----6-6-8-8-4-4----6-6-8-8-4-4----6-6---8----
--------4-4-----------4-4-------------4-4----8---1--

Comments