Green Day - Holiday Chords & Tabs

 

Holiday Chords & Tabs

Green Day Chords & Tabs

Version: 1 Type: Bass Tab 17 ratings
1 star 2 stars 3 stars 4 stars 5 stars
comments

Holiday Bass Tab

   
Holiday
Artist: Green Day
Album: American Idiot
Tab By: atawb 
Tuning (E A D G)

Pre Verse
G|---------------------------|
D|---------------------------|
A|-8-8-8-4-4-4-------6-6-6-6-|
E|-------------4-4-4---------|
[ Tab from: http://www.guitartabs.cc/tabs/g/green_day/holiday_btab.html ]
Verse             x3 Ending 1 x1 Ending 2 x2 Ending 3 x1
G|-------------------|-----------|-----------|-----------------------------------|
D|-------------------|-----------|-----------|-----------------------------------|
A|-8-8-8-4-4-4-------|--6-6-6-6--|--3-3-3-3--|--3-3-3-3-6-6-6-6-6-6--6-6-6-6-6-6-|
E|-------------4-4-4-|-----------|-----------|-----------------------------------|
                                  
Chorus                   x2 Ending 1 x3 Ending 2 x1 
G|--------------------------|----------|----------|
D|--------------------------|----------|----------|
A|---------4-4-4-4----------|-6-6-6-6--|-3-3-3-3--|
E|-1-1-1-1----------4-4-4-4-|----------|----------|

Bridge      x2 Ending 1 x1 Ending 2 x1   
G|-------------|----------|-----------|
D|-------------|----------|-----------|
A|-------------|-4---6----|--6---8-8--|
E|-1-1-1-4-4-4-|---6---8--|----8------|

Solo            x2 Ending 1 x1         Ending 2 x1
G|-----------------|-------------------|----------------------------------|
D|-----------------|-------------------|----------------------------------|
A|-4-4-4-4---------|-3-3-3-3--8-8--6-6-|-3-3-3-3-3-3-3-3--3-3-3-3-3-3-3-3-|
E|---------4-4-4-4-|-------------------|----------------------------------|

Outro
G|-----------------------|
D|-----------------------|
A|-8-8-8-4-4-4--6---8----|  
E|----------------8---1--|

Pre Verse x2
Verse x2 
Chorus
Verse x2 
Chorus
Bridge x2 
Solo
Bridge x6(Then Solo Ending 2 x1)
Chorus (Ending 2 last time is the solo Ending 2 x1)
Pre Verse x3
Outro
Comments