Green Day - Hitchin A Ride Chords & Tabs

 

Hitchin A Ride Chords & Tabs

Green Day Chords & Tabs

Version: 7 Type: Tab 0 ratings
1 star 2 stars 3 stars 4 stars 5 stars
comments

Hitchin A Ride Tab

   
Greenday
"Hitchin' A Ride"
Nimrod
standard tuning

b = bend
pm=palm mute

Main Riff:
e---------------------------
B---------------------------
G---------------------------
D--9-9--7-7--6-6--5--5-5-5--
A--9-9--7-7--6-6--5--5-5-5--
E--7-7--5-5--4-4--3--3-3-3--
pm - -  - -  - -  -  - - - 

After he says "1,2,1,2,3,4"
do the same as below but without pm.

"travel times, you know I cannot lie..."
e----------------------------------------------
B----------------------------------------------
G----------------------------------------------
D--2-2--2--4-4--4--9-9-7-7-6-6-5-5--2-2--2--4--
A--2-2--2--4-4--4--9-9-7-7-6-6-5-5--2-2--2--4--
E--0-0--0--2-2--2--7-7-5-5-4-4-3-3--0-0--0--2--

After that repeat the main riff palm muted

Then after a little moment of silence play the bridge(I think
this is the bridge):
e--------------------------------------------
B--------------------------------------------
G--------------------------------------------
D--9999999999999999999-12121212121212121212--
A--9999999999999999999-12121212121212121212--
E--7777777777777777777-10101010101010101010--
[ Tab from: http://www.guitartabs.cc/tabs/g/green_day/hitchin_a_ride_tab_ver_7.html ]
e-------------------------------------------------------------------
B-------------------------------------------------------------------
G----------------------12121212121212121212-1111111111111111111111--
D--9999999999999999999-12121212121212121212-1111111111111111111111--
A--9999999999999999999-10101010101010101010-9-9-9-9-9-9-9-9-9-9-9---
E--7777777777777777777----------------------------------------------

e-----------------------------------------------
B-----------------------------------------------
G--------------------------------------------9b-
D--9999999999999999999-12121212121212121212--9b-
A--9999999999999999999-12121212121212121212--7b-
E--7777777777777777777-10101010101010101010-----

e-----------------------------------------------------------------------------------------
B-----------------------------------------------------------------------------------------
G---------9-------------9-------------9--------------------------9-------------9------9b--
D--9--12--9--12--9--12--9--12--9--12--9--12--9--12--9--7--9--12--9--12--9--12--9--12--9b--
A--9--12--7--12--9--12--7--12--9--12--7--12--9--12--9--7--9--12--7--12--9--12--7--12--7b--
E--7--10-----10--7--10-----10--7--10-----10--7--10--7--5--7--10-----10--7--10-----10------

Meanwhile a back guitar is palying this:
e------------------------
B------------------------
G------7-7-12-12-11-11---
D--9-9-7-7-12-12-11-11---
A--9-9-5-5-10-10-9--9----
E--7-7-------------------
all over the bridge

repeat the "travel times" part one more time and then again this:
e------------------------
B------------------------
G------7-7-12-12-11-11---
D--9-9-7-7-12-12-11-11---x7
A--9-9-5-5-10-10-9--9----
E--7-7-------------------

after 7 times that...
e-----------------
B-----------------
G-----------------
D--9-9--7-7--6-6--
A--9-9--7-7--6-6--
E--7-7--5-5--4-4--
Comments