Green Day - Hitchin A Ride Chords & Tabs

 

Hitchin A Ride Chords & Tabs

Green Day Chords & Tabs

Version: 4 Type: Tab 1 rating
1 star 2 stars 3 stars 4 stars 5 stars
comments

Hitchin A Ride Tab

   
Artist: Green Day [Billie Joe Armstrong, Mike Pritchard, Frank Wright]
Song: Hitchin' A Ride [Track 14]
Album: International Superhits [2001]
Guitarist: Billie Joe Armstrong, Jason White
Reprise Records

Tuning: Standard [E B G D A E]

This is Green Day's song 'Hitchin' A Ride.'  This song has such a great beat to it.
It is a great song to learn if you are a Green Day fan.  It is on the albums 'Nimrod' 
and 'International Superhits.'  The chords are simple to play and the vocals are of 
a moderate level.  The sound comes from the technique of palm muting in some areas 
and pounding hard in other areas.  The only thing that makes this song a little 
difficult is the guitar solo.  It consists of nothing besides power chords and fast 
strumming.  At the very end of the song, you must hit all six strings on the last 
chord to get the correct sound of the ending.  Have fun and enjoy.

Violin Introduction (0:00 - 0:05)

Verse: (Guitar 2 w/ Distortion)
E|--------------------------|
B|--------------------------|
G|--------------------------|(x10)
D|-99----77----66----5555---|
A|-99----77----66----5555---|
E|-77----55----44----3333---|

Instrumental: (Guitars 1 & 2 w/ Distortion)
E|--------------------------|
B|--------------------------|
G|--------------------------|(x4)
D|-99----77----66----5555---|
A|-99----77----66----5555---|
E|-77----55----44----3333---|

Verse: (Guitar 2 w/ Distortion)(Palm Mute)
E|--------------------------|
B|--------------------------|
G|--------------------------|(x8)
D|-99----77----66----5555---|
A|-99----77----66----5555---|
E|-77----55----44----3333---|

Instrumental: (Guitars 1 & 2 w/ Distortion)
E|--------------------------|
B|--------------------------|
G|--------------------------|(x4)
D|-99----77----66----5555---|
A|-99----77----66----5555---|
E|-77----55----44----3333---|
[ Tab from: http://www.guitartabs.cc/tabs/g/green_day/hitchin_a_ride_tab_ver_4.html ]
Chorus: (Guitars 1 & 2 w/ Distortion)
E|----------------------------------------------------------|
B|----------------------------------------------------------|
G|----------------------------------------------------------|(x1)
D|-2222----4444----99----77----66----5555----2222----4444---|
A|-2222----4444----99----77----66----5555----2222----4444---|
E|-0000----2222----77----55----44----3333----0000----2222---|

Verse: (Guitar 2 w/ Distortion)(Palm Mute)
E|--------------------------|
B|--------------------------|
G|--------------------------|(x5)
D|-99----77----66----5555---|
A|-99----77----66----5555---|
E|-77----55----44----3333---|

Guitar Solo: (Guitars 1 & 2 w/ Distortion)
E|--------------------------------------------------------|
B|--------------------------------------------------------|
G|-4444--7777--4444----------4444--7777--9999--10101010---|(x1)
D|-4444--7777--4444--55--44--4444--7777--9999--10101010---|
A|-2222--5555--2222--55--44--2222--5555--7777---8-8-8-8---|
E|-------------------33--22-------------------------------|

E|----------------------------------------------------------------|
B|----------------------------------------------------------------|
G|-9-7---7-9-7---7-9-7---7---7---9---7-9-7---7-9-7--9999-10101010-|(x1)
D|-9-7-9-7-9-7-9-7-9-7-9-7-9-7-9-9-9-7-9-7-9-7-9-7--9999-10101010-|
A|-7-5-9-5-7-5-9-5-7-5-9-5-9-5-9-7-9-5-7-5-7-5-7-5--7777--8-8-8-8-|
E|-----7-------7-------7---7---7---7-------7----------------------|

Chorus: (Guitars 1 & 2 w/ Distortion)
E|----------------------------------------------------------|
B|----------------------------------------------------------|
G|----------------------------------------------------------|(x1)
D|-2222----4444----99----77----66----5555----2222----4444---|
A|-2222----4444----99----77----66----5555----2222----4444---|
E|-0000----2222----77----55----44----3333----0000----2222---|

Ending: (Guitars 1 & 2 w/ Distortion)
E|--------------------------|
B|--------------------------|
G|-------77-----------------|(x7)
D|-99----77----55----4444---|
A|-99----55----55----4444---|
E|-77----------33----2222---|

E|-------------------------4---|
B|-------------------------4---|
G|-------77----------------4---|(x1)
D|-99----77----4444--------4---|
A|-99----55----4444--------2---|
E|-77----------2222--------2---|

If you have any questions, e-mail me at noodleman5@msn.com or leave me a comment right here.  
Thank you.
Comments