Green Day - Hitchin A Ride Chords & Tabs

 

Hitchin A Ride Chords & Tabs

Green Day Chords & Tabs

Version: 1 Type: Bass Tab 4 ratings
1 star 2 stars 3 stars 4 stars 5 stars
comments

Hitchin A Ride Bass Tab

GREEN DAY - "Hitchin' A Ride" - Green Day

Common Time(4/4)
Standard Tuning(EADG)

INTRO/VERSE:

|----------|------------------|            	
|*---------|-----------------*|	
|*-.-.-.-.-|-.-.-------------*|
|--7-7-5-5-|-4-4---4-3-3-3-3/-|
   1 2 3 4   1 2 & a 3 & 4 &

PRE-CHORUS:
|---------------------|---------------------|
|---------------------|---------------------|
|---------------------|---------------------|
|-7---7-7-7-5---5-5-5-|-4---4-4-4-----3-3-3-|
  1 & a 2 & 3 & a 4 &   1 & a 2 & 3 & a 4 &
[ Tab from: http://www.guitartabs.cc/tabs/g/green_day/hitchin_a_ride_btab.html ]
CHORUS:
|---------|---------|---------|---------|---------|---------|
|---------|---------|---------|---------|---------|---------|
|---------|---------|-2-2-0-0-|---------|---------|---------|
|-0-0-0-0-|-2-2-2-2-|---------|-4-4-3-3-|-0-0-0-0-|-2-2-2-r-|
  1 2 3 4   1 2 3 4   1 2 3 4   1 2 3 4   1 2 3 4   1 2 3 4 

BRIDGE/END BIT:
|----------|----------|
|*-.-.-.-.-|---------*|
|*-2-2-5-5-|-.-.-.-.-*|
|----------|-3-3-2-2--|
   1 2 3 4   1 2 3 4

END:
|---------|---------|---------|---------|
|-.-.-----|---------|---------|---------|
|-2-2-.-.-|-.-.-----|---------|---------|
|-----5-5-|-4-4-r-r-|-------2-|---------|
  1 2 3 4   1 2 3 4   1 2 3 4   1 2 3 4 


Comments