Green Day - Having A Blast Chords & Tabs

 

Having A Blast Chords & Tabs

Green Day Chords & Tabs

Version: 2 Type: Tab 0 ratings
1 star 2 stars 3 stars 4 stars 5 stars
comments

Having A Blast Tab

   
Greenday - Having a Blast.
Tabbed by Kingo, skifreak_000@hotmail.com.
  
well i thought i'd be nice and post 2 tabs in one night. this is the original!

Greenday - Having a Blast

        Intro:
        ||---------------------3--|-(3)--3--3-------------------------||
        ||--2----2----2--2--0--3--|-(3)--3--3-------------------------||
        ||--2----2----2--2--0--4--|-(4)--4--4-------------------------||
        ||--2----2----2--2--0--5--|-(5)--5--5-------------------------||
        ||--0----0----0--0--0--5--|-(5)--5--5----------------2--------||
        ||------------------0--3--|-(3)--3--3--0--0--3---3-------3/---||
                                                        (last time)


        Verse:

        I'm tak - ing_________________                  all____ you     down_ with   me.__
        ||-------------------------|-------------------------|-------------------------|
        ||-------------------------|-------------------------|-------------------------|
        ||--2----------------------|-------------------------|-------------------------|
        ||--2--2--2--2--2--2--2--2-|-2--2--2--2--2--2--2--2--|-2--2--2--2--2--2--2--2--|
        ||--0--0--0--0--0--0--0--0-|-0--0--0--0--0--0--0--0--|-0--0--0--0--0--0--0--0--|
        ||-------------------------|-------------------------|-------------------------|

        ____                    Ex - plosives  duct - taped to_____ my spine,__
        ||--------------------------|-2----2--2--2--2--2--2--|(2)-2--2--2----2--2--3-3-|
        ||--------------------------|-2----2--2--2--2--2--2--|(2)-2--2--2----2--2--3-3-|
        ||--2--2--2--2--2--2--2--2--|-2----2--2--2--2--2--2--|(2)-2--2--2----2--2--3-3-|
        ||--2--2--2--2--2--2--2--2--|-4----4--4--4--4--4--4--|(4)-4--4--4----4--4--5-5-|
        ||--0--0--0--0--0--0--0--0--|-4----4--4--4--4--4--4--|(4)-4--4--4----4--4--5-5-|
        ||--------------------------|-2----2--2--2--2--2--2--|(2)-2--2--2----2--2--3-3-|

        Noth - ings    gon  -  na      change    my___  mind.___  i wont (next verse, same riff)
        ||--3------3---3---3---3-----------|---------------------0---0-------|
        ||--3------3---3---3---3-------0---|(0)---0-------0------0---0-------|
        ||--4------4---4---4---4-------1---|(1)---1-------1------1---1-------|
        ||--5------5---5---5---5-------2---|(2)---2-------2------2---2-------|
        ||--5------5---5---5---5-------2---|(2)---2-------2------2---2-------|
        ||--3------3---3---3---3---0---0---|(0)---0---0---0------0---0---0---|

        listen to anyones last words.
        There's nothing left for you to say.
        Soon you'll be dead anyway. 
        
        Chorus:
        
        D                                           A
well    no__    one___ here      is    get - ting_     out   a - live.___
        
                                       Bm
                This   time   I've     real   -   ly     lost___  my     mind_ 

                                G
        ___  and   I___ don't   care.___                                So

        D                                               A
        Close_     your_____ eyes     and   kiss your   -   self  good - bye___

                                         Bm
                and      think   a   -   bout___ the    times____ you've    spent__

                                     G  
        ___ and    what__ they've    ment.__                             To me it's


        noth   -   ing:                         To me it's                      I'm 
        ||------------------------|----------------------------|----------------------------||
        ||--5---5-----5--5--0--3--|(3)-3--3--3--3--3--3--5--5--|(3)-3--3--3--3--3--3--5--5--||
        ||--6---6-----6--6--0--4--|(4)-4--4--4--4--4--4--6--6--|(4)-4--4--4--4--4--4--6--6--||
        ||--7---7-----7--7--0--5--|(5)-5--5--5--5--5--5--7--7--|(5)-5--5--5--5--5--5--5--5--||
        ||--7---7-----7--7--0--5--|(5)-5--5--5--5--5--5--7--7--|(5)-5--5--5--5--5--5--5--5--||
        ||--5---5-----5--5--0--3--|(3)-3--3--3--3--3--3--5--5--|(3)-3--3--3--3--3--3--5--5--||

        nothing.

        ||------------------------|
        ||------------------------|
        ||------------------------|
        ||------------------------|
        ||------------------------|
        ||------------------------|
[ Tab from: http://www.guitartabs.cc/tabs/g/green_day/having_a_blast_tab_ver_2.html ]
        Verse 2: (Same riff as verse 1)
                I'm losing all my happienes.
                The happiness you pinned on me.
                My loneliness still comforts me.
                My anger dwells inside of me.
                I'm taking it all out on you
                And all the shit you put me through.

        (chorus)

            Do  you ev - er think__ back
        ||---------------2--|(2)-2--2--2--2--2--2-----|
        ||--5------------2--|(2)-2--2--2--2--2--2-----|
        ||--6------------2--|(2)-2--2--2--2--2--2-----|
        ||--7------------4--|(4)-4--4--4--4--4--4-----|
        ||--7------------4--|(4)-4--4--4--4--4--4-----|
        ||--5------------2--|(2)-2--2--2--2--2--2--0--|
                
        
            to an - other time?_____                          Does it bring you so__
        ||------------------|--------------0-----0---0------|-----------------2--|
        ||--7---------------|--------------0-----0---0---5--|-5---------------2--|
        ||--7---------------|--------------------1---1---6--|-6---------------2--|
        ||--9-------------2-|(2)---2---2---------2---2---7--|-7---------------4--|
        ||--9-------------2-|(2)---2---2---------2---2---7--|-7---------------4--|
        ||--7-------------0-|(0)---0---0---------0---0---5--|-5---------------2--|

         ___ down    that__ you       thought you lost__ your mind?_____
        ||--(2)-2--2--2--2--2--2-----|-------------------------|--------------------------|
        ||--(2)-2--2--2--2--2--2-----|-------------------------|--------------------------|
        ||--(2)-2--2--2--2--2--2--7--|-7-----------------------|--------------------------|
        ||--(4)-4--4--4--4--4--4--7--|-7------7---------2------|-x\-----x/-----x\-----x/--|
        ||--(4)-4--4--4--4--4--4--5--|-5------7---------2------|-x\-----x/-----x\-----x/--|
        ||--(2)-2--2--2--2--2--2-----|--------5---------0------|-x\-----x/-----x\-----x/--|

                  Do you ev - er      want____  to      lead__ a           long___
        ||--2-----2---2---2---2-----------|--------------------------------------|
        ||--2-----2---2---2---2---x---7---|(7)--7---7---7------7---7---5---5--5--|
        ||--2-----2---2---2---2---x---7---|(7)--7---7---7------7---7---5---6--6--|
        ||--4-----4---4---4---4---x---7---|(7)--7---7---7------7---7---5---7--7--|
        ||--4-----4---4---4---4---x---5---|(5)--5---5---5------5---5---5---7--7--|
        ||--2-----2---2---2---2-----------|--------------------------------5--5--|

           ___trail  of__de - struc - tion_   and mow     down___           an - y   bull -
        ||-------------------------------------------------2-2-|-2----2--2--2--2--------||
        ||--5-----5-----5--5--5--5--|(5)-5--5--5--5--5--5--2-2-|-2----2--2--2--2--x--3--||
        ||--6-----6-----6--6--6--6--|(6)-6--6--6--6--6--6--2-2-|-2----2--2--2--2--x--4--||
        ||--7-----7-----7--7--7--7--|(7)-7--7--7--7--7--7--4-4-|-4----4--4--4--4--x--5--||
        ||--7-----7-----7--7--7--7--|(7)-7--7--7--7--7--7--4-4-|-4----4--4--4--4--x--5--||
        ||--5-----5-----5--5--5--5--|(5)-5--5--5--5--5--5--2-2-|-2----2--2--2--2--x--3--||

             - shit   that__ con - fronts__ you?
        ||---------------------------|-----------------------|-----------------------|
        ||--(3)-3--3--3--3--3--3-----|-----------------------|--------------------0--|
        ||--(4)-4--4--4--4--4--4-----|-----------------------|--------------------0--|
        ||--(5)-5--5--5--5--5--5--7--|-7-----x--7--7----x--5/|7--7--x--7--7----x--0--|
        ||--(5)-5--5--5--5--5--5--7--|-7-----x--7--7----x--5/|7--7--x--7--7----x--0--|
        ||--(3)-3--3--3--3--3--3--5--|-5-----x--5--5----x--3/|5--5--x--5--5----x--0--|

                Do you ev - er  build___ up  all____ the   small___ things  in___ your  head__
        
        ______            to make   one___       prob - lem that____ adds   up___  to 
        
            noth  -  ing.               To me it's        noth  -  ing.
        ||---------------------------|-------------------|--------------------------|-----------||
        ||---------------------------|-------------------|-5----5-------5--5--0--3--|(3)--------||
        ||---------------------------|-------------------|-6----6-------6--6--0--4--|(4)--------||
        ||---------------------------|-------------------|-7----7-------7--7--0--5--|(5)--------||
        ||---------------------------|-------------------|-7----7-------7--7--0--5--|(5)--------||
        ||---------------------------|-------------------|-5----5-------5--5--0--3--|(3)--------||


questions, comments... 
Kingo, 
Skifreak_000@hotmail.com 
:: Ultimate Guitar Archive :: 
http://www.ultimate-guitar.com 

Comments