Green Day - Having A Blast Chords & Tabs

 

Having A Blast Chords & Tabs

Green Day Chords & Tabs

Version: 3 Type: Bass Tab 0 ratings
1 star 2 stars 3 stars 4 stars 5 stars
comments

Having A Blast Bass Tab

   
Song: Having a Blast
Artist: Green Day
Album: Dookie
Tabbed By: Scott Sherman
Tune: E to Eb

Intro \=slide
G-----------------------------------------------|
D-5-5\3-3\2-------------------------------------|
A------------2---------------2---------------2--|
E----------33-35-555503-33033-35-555503-33033-3-|

Verse-2x *=16 times
G--------------------------------------------|
D---------------------44-444-----------------|
A----------------------------------7-77-7777-|
E-5*--5*--2-2222-2-2-2------3-33330----------|

Chorus-2x  (second time last note E-0)
G--------------------------------------------------------------------|
D-----------------------7---------------------4-4-44-----------------|
A-5-55-55-55555557----------------2-2222-2-2-2-2-2-------------------|
E-----------------5-5555-5-55-5550------------------3-333303-3333335-|

Pre-Verse-3x            Pre-VerseOut
G--------------------| |-------------------|
D--------------5p4p0-| |-------------------|
A--------------------| |-------------------|
E-5-555503-3333------| |5-55550-3-33333333-|
[ Tab from: http://www.guitartabs.cc/tabs/g/green_day/having_a_blast_btab_ver_3.html ]
THEN Play Verse-2x, Chorus-2x, Pre-Verse-3x, Pre-VerseOut, thenů

Bridge  X=stop
G--X--------------X--------------X-----------------------------|
D--X--------------X--------------X-----------------------------|
A--X-------------2X--------------X--------------55-------------|
E-5X----2-222-222-X----0-000-0005X----2-222-2222--550-00000000-|

Verse2
G----------------------------------------------------------------->
D----------------------------------------------------------------->
A--------5-55-5555------------------------------------------------>
E-2-22220---------5-555555-55-55502-222203-333-3335-055-53-5505-0->

>--------------------------------------------------|
>--------------------------------------------------|
>--------5-55-5555---------------------------------|
>-2-22220---------5-555555-55-55502-222203-333-333-|

Pre-Verse-3x           Outro
G--------------------| |----------|
D--------------5p4p0-| |----------|
A--------------------| |----------|
E-5-555503-3333------| |5-55550-3-|
END Comments or Corrections mail me at shermdog17@yahoo.com
Check out my band at www.geocites.com/thecause_ifanything/punk.html
Comments