Green Day - Ha Ha Youre Dead Chords & Tabs

 

Ha Ha Youre Dead Chords & Tabs

Green Day Chords & Tabs

Version: 6 Type: Tab 0 ratings
1 star 2 stars 3 stars 4 stars 5 stars
comments

Ha Ha Youre Dead Tab

   
-- GREEN DAY --
-- HA HA YOU'RE DEAD --
-- TABBED BY BJFABIO --

-- INTRO & VERSE --   (intro x2 - verse x4)

   C  (p.m.)        G  (p.m.)        A  (p.m.)        A  (p.m.)
e|--------------------------------------------------------------------|
B|--------------------------------------------------------------------|
G|-5-5-5-5-5-5-5-5----------------------------------------------------|
D|-5-5-5-5-5-5-5-5--5-5-5-5-5-5-5-5--7-7-7-7-7-7-7-7--7-7-7-7-7-7-7-7-|
A|-3-3-3-3-3-3-3-3--5-5-5-5-5-5-5-5--7-7-7-7-7-7-7-7--7-7-7-7-7-7-7-7-|
E|------------------3-3-3-3-3-3-3-3--5-5-5-5-5-5-5-5--5-5-5-5-5-5-5-5-|

-- PRE-CHORUS --
   F     G          C
e|----------------------------------|
B|----------------------------------|
G|----------------------------------|
D|-3-3-3-5-5-5-5-5--5-5-5-5-5-5-5-5-|  X4
A|-3-3-3-5-5-5-5-5--5-5-5-5-5-5-5-5-|
E|-1-1-1-3-3-3-3-3--3-3-3-3-3-3-3-3-|
[ Tab from: http://www.guitartabs.cc/tabs/g/green_day/ha_ha_youre_dead_tab_ver_6.html ]
-- CHORUS --
   C                F                C                G
e|--------------------------------------------------------------------|
B|--------------------------------------------------------------------|
G|-5-5-5-5-5-5-5-5-------------------5-5-5-5-5-5-5-5------------------|
D|-5-5-5-5-5-5-5-5--3-3-3-3-3-3-3-3--5-5-5-5-5-5-5-5--5-5-5-5-5-5-5-5-|
A|-3-3-3-3-3-3-3-3--3-3-3-3-3-3-3-3--3-3-3-3-3-3-3-3--5-5-5-5-5-5-5-5-|
E|------------------1-1-1-1-1-1-1-1-------------------3-3-3-3-3-3-3-3-|
   A             G  F                C       G        C
e|--------------------------------------------------------------------|
B|--------------------------------------------------------------------|
G|-----------------------------------5-5-5-5----------5-5-5-5-5-5-5-5-|
D|-7-7-7-7-7-7-7-5--3-3-3-3-3-3-3-3--5-5-5-5-5-5-5-5--5-5-5-5-5-5-5-5-|
A|-7-7-7-7-7-7-7-5--3-3-3-3-3-3-3-3--3-3-3-3-5-5-5-5--3-3-3-3-3-3-3-3-|
E|-5-5-5-5-5-5-5-3--1-1-1-1-1-1-1-1----------3-3-3-3------------------|

-- SOLO (OVER CHORUS) --
   C        F        C        G        A      G F        C   G    C
e|-8-8-8-8--1-1-1-1--8-8-8-8--3-3-3-3--5-5-5-5--1-1-1-1--8-8-3-3--8---|
B|--8-8-8-8--1-1-1-1--8-8-8-8--3-3-3-3--5-5-5-5--1-1-1-1--8-8-3-3-----|
G|--------------------------------------------------------------------|
D|--------------------------------------------------------------------|
A|--------------------------------------------------------------------|
E|--------------------------------------------------------------------|

 ...END WITH C


-- INTRO
-- VERSE
-- PRE-CHORUS
-- VERSE
-- PRE-CHORUS
-- CHORUS
-- SOLO (OVER CHORUS)
-- CHORUS
-- CHORUS + SOLO
-- CHORUS

............COMPLETELY TABBED BY ME!!!!
Comments