Green Day - Ha Ha Youre Dead Chords & Tabs

 

Ha Ha Youre Dead Chords & Tabs

Green Day Chords & Tabs

Version: 5 Type: Tab 0 ratings
1 star 2 stars 3 stars 4 stars 5 stars
comments

Ha Ha Youre Dead Tab

Green Day - Ha Ha You're Dead
Tabbed By: Alex Harbin
EMail: geekstink86@punkhardcore.net


Intro/Verse

(palm muted)
|--------------------------------------------------------------------|
|--------------------------------------------------------------------|
|--------------------------------------------------------------------|
|-5-5-5-5-5-5-5-5-5-------------------------------------------------|
|-3-3-3-3-3-3-3-3-3---5-5-5-5-5-5-5-7-7-7-7-7-7-7-7-7-7-7-7-7-7-7--|
|----------------------3-3-3-3-3-3-3-5-5-5-5-5-5-5-5-5-5-5-5-5-5-5--|


Pre-Chorus

|-------------------------------------------------------------|
|-------------------------------------------------------------|
|-5-/-7-------------------------------------------------------|
|-5-/-7---5-5-5-5-5-5-5--5-5--5-5-5-5-5-5-5-5----|
|-3-/-5---5-5-5-5-5-5--5-5-5-5-5-5-5-5-5-5-5----|
|---------3-3--3--3--3--3--3--3--3--3--3--3--3--3--3--3--3----|


Chorus
[ Tab from: http://www.guitartabs.cc/tabs/g/green_day/ha_ha_youre_dead_tab_ver_5.html ]
|-------------------------------------------------------------------------------|
|-------------------------------------------------------------------------------|
|-5-5-5-5-5-5-5-5-5-------------------------------------------------------------|
|-5-5-5-5-5-5-5-5-5---5-5-5-5-5-5-5-5-5---7-7-7-7-7-7-7-7-7-7---5-5-5-5-5-5-5-5-|
|-3-3-3-3-3-3-3-3-3---5-5-5-5-5-5-5-5-5--7-7-7-7-7-7-7-7-7-7--5-5-5-5-5-5-5-5-|
|---------------------3-3-3-3-3-3-3-3-3--5-5-5-5-5-5-5-5-5-5--3-3-3-3-3-3-3-3-|


|--------------------|
|--------------------|
|--------------------|
|-5---5-5-5-5---5----|
|-5---3-3-3-3---5----|
|-3-------------3----|


Solo

|--------------------------------------------------------------------------------------|
|--------------------------------------------------------------------------------------|
|-9--9---9---9---10----10----10----10----9---9---9---9----12----12----12----12--------|
|--10-10-10--10---11----11----11----11---10-10--10--10----14----14----14----14------|
|--------------------------------------------------------------------------------------|
|--------------------------------------------------------------------------------------|


|------------------------------------------------------------------|
|------------------------------------------------------------------|
|-9---9---9---9----10----10----10----9---9----7---7----------------|
|--10-10-10--10----11----11----11---10-10----8---8-----9--------|
|------------------------------------------------------------------|
|------------------------------------------------------------------|
Comments