Green Day - Ha Ha Youre Dead Chords & Tabs

 

Ha Ha Youre Dead Chords & Tabs

Green Day Chords & Tabs

Version: 1 Type: Bass Tab 0 ratings
1 star 2 stars 3 stars 4 stars 5 stars
comments

Ha Ha Youre Dead Bass Tab

Green Day's
"Ha Ha You're Dead" from thier new CD.  Don't give me grief if it's wrong.
I think this sounds right, so.. yeah.


Intro/Verse Part One
G------------------------------------------
D------------------------------------------
A--33333333-------------------------------- x6
E----------33333333-5555555555555555-------


Verse Part Two

G---------------------
D---------------------
A----3---------------- x5
E--1---333-333-333------


Verse Part One
G------------------------------------------
D------------------------------------------
A--33333333-------------------------------- x4
E----------33333333-5555555555555555-------


Verse Part Two

G-----------------------
D-----------------------
A----3------------------ x4
E--1---333-333-333------
[ Tab from: http://www.guitartabs.cc/tabs/g/green_day/ha_ha_youre_dead_btab.html ]
For the rest of the song, this is played.  Each section of four is basically tapping your foot.  Don't seperate the notes though.

Chorus x5

G---------------------------------------------
D---------------------------------------------
A3333-3333-3333-3333--------------------------
E--------------------1111-1111-1111-1111------

G---------------------------------------------
D---------------------------------------------
A3333-3333-3333-3333--------------------------
E--------------------3333-3333-3333-3333------

G----------------------------------------------
D----------------------------------------------
A----------------------------------------------
E-5555-5555-5555-5555-5-3-1111-1111-1111-1111--

G----------------------------------------------
D----------------------------------------------
A-3333-3333-3333-3333--------------------------
E---------------------3333-3333-3333-3333------
Comments