Green Day - Green Day Chords & Tabs

 

Green Day Chords & Tabs

Green Day Chords & Tabs

Version: 6 Type: Tab 0 ratings
1 star 2 stars 3 stars 4 stars 5 stars
comments

Green Day Tab

   
-----------------------------------------------------------------------------
                             GREEN DAY - Green Day
-----------------------------------------------------------------------------
Tabbed by: DTorre
Email: davide.torre@live.it

Tuning: Half Step Down

Notes: All chord are reffered to a standard tuning
       BpM = 95

       Patterns - Fret to be played starting from the lower string (Eb)
E: 022100
E5: X79900       
Bsus4: x24400
These chords are played in the verse:
E5: X79900
D5/6: x57700
C#m7: X46600
       
Intro

B5 F#5 D5 Bsus4

Bass intro then

G#5 E B5 x2

G#5 E B5 A5 B5

Verse:

E5           D5/6            
   A small cloud has fallen
    C#m7                   Bsus4    F#5
The white mist hits the ground
         A5                   E
My lungs comfort me with joy


 *play this pattern*

eb|--------0--------------------------------------|
Bb|------0---0------------------------------------|
Gb|--1h2-------1----------------------------------|
Db|-----------------------------------------------| 
Ab|-----------------------------------------------|
Eb|-----------------------------------------------|

*Same chords*

Vegging on one detail
The rest just crowds around
My eyes itch of burning red

Chorus:
[ Tab from: http://www.guitartabs.cc/tabs/g/green_day/green_day_tab_ver_6.html ]
G#5  E           B
       Picture sounds
G#5  E           B              A   
       Of moving insects so surreal

Lay around
Looks like I found something new

Verse:

Laying in my bed
I think I'm in left field
I picture someone, I think it's you
You're standing so damn close
My body begins to swell
Why does 1 + 1 make 2

Chorus

Picture sounds
Of moving insects so surreal
Lay around
Looks like I found something new

Interlude: E5 D5 C#m7 Bsus4 F#5 A5 E x2

Solo:

eb|-----------------------------------------------|
Bb|-----------------------------------------------|
Gb|---4-4-4-4-4-4/6-4-4-2/1-1--2-1----------------|
Db|--------------------------------4-2-4-4-4-4~~--|  F#5 A5 E x2
Ab|-----------------------------------------------|
Eb|-----------------------------------------------|


Laying in my bed
I think I'm in left field
I picture someone, I think it's you
You're standing so damn close
My body begins to swell
Why does 1 + 1 make 2

Picture sounds
Of moving insects so surreal
Lay around
Looks like I found something new 

E5 D5 C#m7 Bsus4

Outro 
 Let Ring -------------------------------|
eb|-------0-------0---------0---------------------|
Bb|-----0---0---0---0----0-----0--------0---------|
Gb|---2-------2-------2-----------2---------------|
Db|-----------------------------------------------| 
Ab|-----------------------------------------------|
Eb|-----------------------------------------------|

Enjoy this song! ;)

Comments