Green Day - Green Day Chords & Tabs

 

Green Day Chords & Tabs

Green Day Chords & Tabs

Version: 2 Type: Tab 0 ratings
1 star 2 stars 3 stars 4 stars 5 stars
comments

Green Day Tab

Song: Green Day
Band: Greenday
Album: 1,039 / Smoothed Out Slappy Hours
Tunning: Standard
Tabbed by: simpleppl@hotmail.com

---------------------------------
| / - slide up  x - mute string |
| p - pull off  h - hammer on   |
---------------------------------

  Intro
e|-2--0--2--2--
B|-2--0--3--2--
G|-4--1--2--4--
D|-4--2--0--4--
A|-2--2--0--2--
E|-2--0--0--2--

  Fig.1
e|-4-4-4-4-4--0-0-0-0-0-0-0-0--2-2-2-2-2-2-2-2-2-2-2-2--
B|-4-4-4-4-4--0-0-0-0-0-0-0-0--2-2-2-2-2-2-2-2-2-2-2-2--
G|-4-4-4-4-4--0-0-0-0-0-0-0-0--4-4-4-4-4-4-4-4-4-4-4-4--
D|-6-6-6-6-6--2-2-2-2-2-2-2-2--4-4-4-4-4-4-4-4-4-4-4-4--
A|-6-6-6-6-6--2-2-2-2-2-2-2-2--2-2-2-2-2-2-2-2-2-2-2-2--
E|-4-4-4-4-4--0-0-0-0-0-0-0-0--2-2-2-2-2-2-2-2-2-2-2-2--
[ Tab from: http://www.guitartabs.cc/tabs/g/green_day/green_day_tab_ver_2.html ]
  Fig.2
e|--7-7-7-7--5-5-5-5--x-x--4-4-4-4-4--2-2-2-2-2-2-2-2--2-2-2-2-2--0-0-0-0-0-0-0-0--
B|--7-7-7-7--5-5-5-5--x-x--4-4-4-4-4--2-2-2-2-2-2-2-2--2-2-2-2-2--0-0-0-0-0-0-0-0--
G|*-9-9-9-9--7-7-7-7--x-x--6-6-6-6-6--4-4-4-4-4-4-4-4--2-2-2-2-2--2-2-2-2-2-2-2-2--
D|*-9-9-9-9--7-7-7-7--x-x--6-6-6-6-6--4-4-4-4-4-4-4-4--4-4-4-4-4--2-2-2-2-2-2-2-2--
A|--7-7-7-7--5-5-5-5--x-x--4-4-4-4-4--2-2-2-2-2-2-2-2--4-4-4-4-4--0-0-0-0-0-0-0-0--
E|--7-7-7-7--5-5-5-5--x-x--4-4-4-4-4--2-2-2-2-2-2-2-2--2-2-2-2-2--0-0-0-0-0-0-0-0--

  end.1                       end.2
  -0-0-----------------------|-5~--
  -0-0-----------------------|-5~--
  -0-0--1h2p1-/4-4-1h2p1----*|-5~--
  -2-2-------------------2--*|-7~--
  -2-2-----------------------|-7~--
  -0-0-----------------------|-5~--

  Solo
e|-12-12-12-12-12---14-12-10-9---9-10-9-7-5-7-7---2-2---2-2-2-2-2---0-0-0-0-0-0-0-0--
B|-12-12-12-12-12---14-12-10-9---9-10-9-7-5-7-7---2-2---2-2-2-2-2---2-2-2-2-2-2-2-2--
G|--9--9--9--9--9---11--9--8-7---7--8-7-5-3-5-5---4-4---2-2-2-2-2---2-2-2-2-2-2-2-2--
D|--9--9--9--9--9---11--9--8-7---7--8-7-5-3-5-5---4-4---4-4-4-4-4---2-2-2-2-2-2-2-2--
A|--x--x--x--x--x----x--x--x-x---x--x-x-x-x-x-x---2-2---4-4-4-4-4---0-0-0-0-0-0-0-0--
E|--x--x--x--x--x----x--x--x-x---x--x-x-x-x-x-x---2-2---2-2-2-2-2---0-0-0-0-0-0-0-0--

  -0-0----------------------
  -0-0----------------------
  -0-0--1h2p1-/4-4-1h2p1----
  -2-2-------------------2--
  -2-2----------------------
  -0-0----------------------


Intro           / Fig.2 - 2x
Fig.1 - 3x     /  Solo  - 2x
Fig.2 - 2x    /   Fig.2 - 2x
Fig.1 - 4x   /    Fig.1 - 4x
Fig.2 - 3x  /     Fig.2 - end.2
Fig.1 - 4x /
Comments