Green Day - Governator Chords & Tabs

 

Governator Chords & Tabs

Green Day Chords & Tabs

Version: 2 Type: Tab 0 ratings
1 star 2 stars 3 stars 4 stars 5 stars
comments

Governator Tab

   
                           GOVERNATOR
                           GREEN DAY
                       American Idiot CDS
                      Tabbed By Donkey Fly

You Can Download This Song Here  
WWW.GREENDAYAUTHORITY.COM
Find you way around
  
On the other version he says ocatves are used , ive seen a live video stream on i think
its was some green day fan site and he definately was not using octaves , it was either
power chords or single string.

Warm Distortion

Intro

Hey! Hey! Hey!.........

Verse

Lyrics Bass Line


16 Seconds Into The Song

E|------------------------------------------------------------------|
B|------------------------------------------------------------------|
G|------------------------------------------------------------------|
D|--9-9-9-9-9-9-9-9-7-7-7-7-7-7-7-7---------------------------------|
A|--7-7-7-7-7-7-7-7-5-5-5-5-5-5-5-5-9-9-9-9-9-9-9-9-9-9-9-9-9-9-9-9-|
E|----------------------------------7-7-7-7-7-7-7-7-7-7-7-7-7-7-7-7-|

E|------------------------------------------------------------------|
B|------------------------------------------------------------------|
G|------------------------------------------------------------------|
D|-9-9-9-9-9-9-9-9------------------7-7-7-7-7-7-7-7-7-7-7-7-7-7-7-7-|
A|-7-7-7-7-7-7-7-7-7-7-7-7-7-7-7-7--5-5-5-5-5-5-5-5-5-5-5-5-5-5-5-5-|
E|-----------------5-5-5-5-5-5-5-5----------------------------------|

[ Tab from: http://www.guitartabs.cc/tabs/g/green_day/governator_tab_ver_2.html ]
Pre-Chorus X4
E|------------------------------------------------------------------|
B|------------------------------------------------------------------|
G|------------------------------------------------------------------|
D|-9-9--------------------------------------------------------------|
A|-7-7-9-9-9-9-9-9-9-9-9-9-9-9-9-9----------------------------------|
E|-----7-7-7-7-7-7-7-7-7-7-7-7-7-7----------------------------------|


Chorus X4
E|------------------------------------------------------------------|
B|------------------------------------------------------------------|
G|--9-9xx7-7xx-----7-7xx--------------------------------------------|
D|--9-9xx7-7xx7-7xx7-7xx--------------------------------------------|
A|--7-7xx5-5xx7-7xx5-5xx--------------------------------------------|
E|------------5-5xx-------------------------------------------------|


Verse 2 just Bass Line


Pre-chorus

Chorus

Pre-chorus

Bridge
E|------------------------------------------------------------------|
B|------------------------------------------------------------------|
G|------------------------------------------------------------------|
D|-99999999999999-77777777777777------------------------------------|
A|-77777777777777-55555555555555-9999999999999-777777777777777------|
E|-------------------------------7777777777777-555555555555555------|

E|--------------------------------------------------------------------------|
B|--------------------------------------------------------------------------|
G|--------------------------------------------------------------------------|
D|-9999999999999977777777777777111111111111111111111111111111777777777777777|
A|-7777777777777755555555555555-9-9-9-9-9-9-9-9-9-9-9-9-9-9-9555555555555555|
E|--------------------------------------------------------------------------|

Chorus x2

End on E5 (X799XX)
Comments