Green Day - Governator Chords & Tabs

 

Governator Chords & Tabs

Green Day Chords & Tabs

Version: 1 Type: Bass Tab 0 ratings
1 star 2 stars 3 stars 4 stars 5 stars
comments

Governator Bass Tab

Artist: Green Day
Title: Governator
Album: American Idiot (B-Side)

This song is pretty easy as long as you can move your finger quickly.

Verse
G|---------------------------------------------|
D|---------------------------------------------|
A|-2/77777777-55555555-2222222222222222--------|
E|---------------------------------------------|


G|---------------------------------------------|
D|---------------------------------------------|
A|-77777777-00000000-5555555555555-4-5-6-------|
E|---------------------------------------------|


G|---------------------------------------------|
D|---------------------------------------------|
A|-77777777-55555555-2222222222222222----------|
E|---------------------------------------------|


G|---------------------------------------------|
D|--------------------------------2--2---------|
A|-77777777-00000000-5555555555555-------------|
E|---------------------------------------------|

Chorus
G|---------------------------------------------|
D|--------------2--2-------------2--2----------|
A|-2222222222222----2222222222222--------------|
E|---------------------------------------------|

[ Tab from: http://www.guitartabs.cc/tabs/g/green_day/governator_btab.html ]
G|---------------------------------------------|
D|--------------2--2---------------------------|
A|-2222222222222----2222222222222222-----------|
E|---------------------------------------------|


G|---------------------------------------------|
D|---------------------------------------------|
A|-77-55-00-55-77-55-00-55---------------------| (2x)
E|---------------------------------------------|

Riff
G|---------------------------------------------|
D|---------------------------------------------|
A|-7777777777777777-5555555555555555-----------| 
E|---------------------------------------------|


G|---------------------------------------------|
D|---------------------------------------------|
A|-2222222222222222-000000000000000-2/---------| 
E|---------------------------------------------|


G|---------------------------------------------|
D|---------------------------------------------|
A|-7777777777777777-5555555555555555-----------| 
E|---------------------------------------------|


G|---------------------------------------------|
D|---------------------------------------------|
A|-9999999999999999-5555555555555-4-5-6--------|
E|---------------------------------------------|

Order:
Verse
Chorus
Verse
Chorus
Chorus
Riff
Line 3 of chorus (8x)
Comments