Green Day - Good Riddance (time Of Your Life) Chords & Tabs

 

Good Riddance (time Of Your Life) Chords & Tabs

Green Day Chords & Tabs

Version: 5 Type: Tab 0 ratings
1 star 2 stars 3 stars 4 stars 5 stars
comments

Good Riddance (time Of Your Life) Tab

   
ROBIN SLOAN TABS

Song: GOOD RIDDANCE (TIME OF YOUR LIFE)
Band: GREEN DAY
Album: Nimrod (1997)

Intro "Fuck-up"

e|-----------------------------|
B|-----------------------------|
G|-----0----------0------------|
D|-------0----------0----------|
A|-----------------------------|
E|-3-3--------3-3--------------|
  
                      FUCK

   G     G     Cadd9 D
e|----3-----3-----3-----3------|
B|---3-3---3-3---3-3---3-3-----|
G|-----------------------------|
D|-----0-----0-------0---0-----|
A|-------------3---3-----------|
E|-3-----3---------------------| x4

   Em    D     Cadd9 G    Em    D     Cadd9 G
e|----0-----3-----3----3-----0-----3-----3-----3---------|
B|---0-0---3-3---3-3--3-3---0-0---3-3---3-3---3-3--------|
G|-------------------------------------------------------|
D|-2---2-0---0------------------0---0--------------------|
A|-------------3---3------------------3---3--------------|
E|-------------------3--3-0---0-------------3---3--------|

   Em    G     Em    G    Em    D     (G*)
e|----0-----3-----0----3-----0-----3---------------------|
B|---0-0---3-3---0-0--3-3---0-0---3-3--------------------|
G|-------------------------------------------------------|
D|------------------------------0---0--------------------|
A|-------------------------------------------------------|
E|-0---0-3---3-0---0-3--3-0---0--------------------------|

* G is first chord of next riff 

Full Chords

G G Cadd9 D x4
Em D Cadd9 G x2
Em G Em G Em D (G)

x2


   Em    G     Em    G    Em    D     (G*)
e|----0-----3-----0----3-----0-----3---------------------|
B|---0-0---3-3---0-0--3-3---0-0---3-3--------------------|
G|-------------------------------------------------------|
D|------------------------------0---0--------------------|
A|-------------------------------------------------------|
E|-0---0-3---3-0---0-3--3-0---0--------------------------|
[ Tab from: http://www.guitartabs.cc/tabs/g/green_day/good_riddance_time_of_your_life_tab_ver_5.html ]
   G     G     Cadd9 D
e|----3-----3-----3-----3------|
B|---3-3---3-3---3-3---3-3-----|
G|-----------------------------|
D|-----0-----0-------0---0-----|
A|-------------3---3-----------|
E|-3-----3---------------------| x2  Strum full G chord once to finish


LYRICS

Intro: G G Cadd9 D x2

G    
Another turning point
  Cadd9             D
A fork stuck in the road
G         
Time grabs you by the wrist
   Cadd9             D
Directs you where to go

Em          D            Cadd9
So make the best of this test
              G
And don't ask why
Em           D
It's not a question
       Cadd9            G
But a lesson learned in time

      Em             G
It's something unpredicatble
    Em             G
But in the end is right
  Em                D            G
I hope you had the time of your life

G G Cadd9 D x2

G                    
So take the photographs
    Cadd9                D
And still frames in your mind
G
Hanging on a shelf
   Cadd9                D
In good health and good time

Em          D
Tattoos of memories
     Cadd9         G
And dead skin on trial
Em             D
For what it's worth
        Cadd9         G
It was worth all the while

      Em             G
It's something unpredicatble
    Em             G
But in the end is right
   Em              D            G
I hope you had the time of your life

G G Cadd9 D x4
Em D Cadd9 G x2

     Em             G
It's something unpredicatble
    Em             G
But in the end is right
   Em              D            G
I hope you had the time of your life

G G Cadd9 D x2 G
 






Comments