Green Day - Good Riddance (time Of Your Life) Chords & Tabs

 

Good Riddance (time Of Your Life) Chords & Tabs

Green Day Chords & Tabs

Version: 3 Type: Tab 0 ratings
1 star 2 stars 3 stars 4 stars 5 stars
comments

Good Riddance (time Of Your Life) Tab

   
Green Day, Good Riddance (Time of your life)
Zach
the intro:
|------------------------------------------------------------------------------------------------------|
|---------------------------3------------------3------------------3-------------------3----------------|
|---0----------0---------------0---0------------0---0---------------0---0---------------0---0----------|
|------0---------0---------------0----------------0-------------------0-------0-0---------0------------|
|----------------------------------------------------------3-3-----------------------------------------|
|-3-------3-3--------3-3---------------3-3-------------------------------------------------------------|
[ Tab from: http://www.guitartabs.cc/tabs/g/green_day/good_riddance_time_of_your_life_tab_ver_3.html ]
Do that about four times
then on about the 5th time go like this:
|------------------------------------------------------------------------------------------------------|
|---------3---------------3---------------3----------------3----------------0--------------3-----------|
|-----------0---0----------0---0------------0---0------------2---2------------0---0----------2---2-----|
|-------------0--------------0----------------0------0-0-------0----------------0--------------0-------|
|-----------------------------------3-3---------------------------------2-2-----------3-3--------------|
|---3-3-------------3-3--------------------------------------------------------------------------------|

Then it goes into the strumming part.. which is these chords, figure out
the pattern yourself

G, G2, D     about 4X

then Em, D about 5X then it goes back into the intro part

G              G2             Em           D
                                           
3              3              0            3
0              0              0            2
0              0              0            3
0              2              2            0
2              3              2            x
3              0              0            x

Comments