Green Day - Good Riddance (time Of Your Life) Chords & Tabs

 

Good Riddance (time Of Your Life) Chords & Tabs

Green Day Chords & Tabs

Version: 10 Type: Tab 0 ratings
1 star 2 stars 3 stars 4 stars 5 stars
comments

Good Riddance (time Of Your Life) Tab

   
Part A
-----------------|Do this part twic eand then pause for a
-----------------|second and say "fuck"
----0--------0---|
------0--------0-|
-----------------|
3-3------3-3-----|

Part B
--------------------------------------------------------|
-----3------------3------------3-----------3------------|
-------0---0--------0---0--------0---0-------0---0------|
---0-----0------0-----0------0-----0-----0-----0--------|
---------------------------3-----------0----------------|
-3------------3-----------------------------------------|
Do this part twice and then the singing starts and you do it two more times.
[ Tab from: http://www.guitartabs.cc/tabs/g/green_day/good_riddance_time_of_your_life_tab_ver_10.html ]
--------------------------------------------------------|
-----0-----------3-----------3-----------3--------------|
-------0---0-------2---2-------0---0-------0---0--------|
---2-----0-----0-----0-----0-----0-----0-----0----------|
-2-----------0-----------3------------------------------|
-------------------------------------3------------------|
Then you play this part though twice while singing
"so make the best of this test known as life"

Part C
--------------------------------------------------------|
-----0-----------3-----------0-----------3--------------|
-------0---0-------0---0-------0---0-------0---0--------|
---2-----0-----0-----0-----2-----0-----0-----0----------|
-2-----------------------2------------------------------|
-------------3-----------------------3------------------|

--------------------------------------------------------|
-----0-----------3--------------------------------------|
-------0---0-------2---2--------------------------------|
---2-----0-----0-----0----------------------------------|
-2-----------0------------------------------------------|
--------------------------------------------------------|
This is the chorus part

after this then you go back to part A and sing it though and then part B and C.

on the part with the cello you jsut play part A twicethough and then
then Part B once and then you play part C and sing and play part A once
nad then slow down and make it real pretty.

P.S. play this for your girlfriend she will like it.
Comments