Green Day - Going To Pasalacqua Chords & Tabs

 

Going To Pasalacqua Chords & Tabs

Green Day Chords & Tabs

Version: 3 Type: Tab 0 ratings
1 star 2 stars 3 stars 4 stars 5 stars
comments

Going To Pasalacqua Tab

Band: Green Day
Song: Going To Pasalacqua


intro

|----------------|
|-2-2:h3p2h3p2-2-|
|-2-2:---------2-|
|-2-2:---------2-|
|----------------|
|----------------|

verse

|-----------------2-2-2-2-2-2-2-2-------------------------| (x2)
|-----------------3-3-3-3-3-3-3-3-2-2-2-2-2-2-2-2-2-2-2-2-|
|-1-1-1-1-1-1-1-1-2-2-2-2-2-2-2-2-2-2-2-2-2-2-2-2-2-2-2-2-|
|-2-2-2-2-2-2-2-2-0-0-0-0-0-0-0-0-2-2-2-2-2-2-2-2-2-2-2-2-|
|-2-2-2-2-2-2-2-2-----------------------------------------|
|-0-0-0-0-0-0-0-0-----------------------------------------|

chorus

|-2-2-2-2-2-2-------------------------------------2-2-2-2-2-2-2-2-2-2-2-2-
|-3-3-3-3-3-3-2-2-2-2-2-2-------------------------3-3-3-3-3-3-3-3-3-3-3-3-
|-2-2-2-2-2-2-2-2-2-2-2-2-1-1-1-1-1-1-1-1-1-1-1-1-2-2-2-2-2-2-2-2-2-2-2-2-
|-0-0-0-0-0-0-2-2-2-2-2-2-2-2-2-2-2-2-2-2-2-2-2-2-0-0-0-0-0-0-0-0-0-0-0-0-
|-------------------------2-2-2-2-2-2-2-2-2-2-2-2-------------------------
|-------------------------0-0-0-0-0-0-0-0-0-0-0-0-------------------------

 -------------------------|(x2)
 -2-2-2-2-2-2-2-2-2-2-2-2-|
 -2-2-2-2-2-2-2-2-2-2-2-2-|
 -2-2-2-2-2-2-2-2-2-2-2-2-|
 -------------------------|
 -------------------------|
pm.......................(IMPORTANT palm mute 2nd time only)



second verse 

|-----------------------------------------------2-2-2-2-2-2-2-2-2-2-2----| (x2)
|-2-2-2-2-2-2-----------------------------------3-3-3-3-3-3-3-3-3-3-3--2-|
|-2-2-2-2-2-2-1-1-1-1-1-1-----------------------2-2-2-2-2-2-2-2-2-2-2--2-|
|-2-2-2-2-2-2-2-2-2-2-2-2-4-4-4-4-4-4-4-4-4-4-4-0-0-0-0-0-0-0-0-0-0-0--2-|
|-------------2-2-2-2-2-2-4-4-4-4-4-4-4-4-4-4-4--------------------------|
|-------------0-0-0-0-0-0-2-2-2-2-2-2-2-2-2-2-2--------------------------|


Fill
 ---------------------------------------------|(x1)
 -2-2-2-2-2-2-2-2-2-2-2-2-2-2-2-2-2-2-2-2-2-2-|
 -2-2-2-2-2-2-2-2-2-2-2-2-2-2-2-2-2-2-2-2-2-2-|
 -2-2-2-2-2-2-2-2-2-2-2-2-2-2-2-2-2-2-2-2-2-2-|
 ---------------------------------------------|
 ---------------------------------------------|
pm...........................................


verse

|-----------------2-2-2-2-2-2-2-2-------------------------| (x1)
|-----------------3-3-3-3-3-3-3-3-2-2-2-2-2-2-2-2-2-2-2-2-|
|-1-1-1-1-1-1-1-1-2-2-2-2-2-2-2-2-2-2-2-2-2-2-2-2-2-2-2-2-|
|-2-2-2-2-2-2-2-2-0-0-0-0-0-0-0-0-2-2-2-2-2-2-2-2-2-2-2-2-|
|-2-2-2-2-2-2-2-2-----------------------------------------|
|-0-0-0-0-0-0-0-0-----------------------------------------|



Fill
 ---------------------------------------------|(x1)
 -2-2-2-2-2-2-2-2-2-2-2-2-2-2-2-2-2-2-2-2-2-2-|
 -2-2-2-2-2-2-2-2-2-2-2-2-2-2-2-2-2-2-2-2-2-2-|
 -2-2-2-2-2-2-2-2-2-2-2-2-2-2-2-2-2-2-2-2-2-2-|
 ---------------------------------------------|
 ---------------------------------------------|
pm...........................................


verse

|-----------------2-2-2-2-2-2-2-2-------------------------| (x1)
|-----------------3-3-3-3-3-3-3-3-2-2-2-2-2-2-2-2-2-2-2-2-|
|-1-1-1-1-1-1-1-1-2-2-2-2-2-2-2-2-2-2-2-2-2-2-2-2-2-2-2-2-|
|-2-2-2-2-2-2-2-2-0-0-0-0-0-0-0-0-2-2-2-2-2-2-2-2-2-2-2-2-|
|-2-2-2-2-2-2-2-2-----------------------------------------|
|-0-0-0-0-0-0-0-0-----------------------------------------|



chorus
[ Tab from: http://www.guitartabs.cc/tabs/g/green_day/going_to_pasalacqua_tab_ver_3.html ]
|-2-2-2-2-2-2-------------------------------------2-2-2-2-2-2-2-2-2-2-2-2-
|-3-3-3-3-3-3-2-2-2-2-2-2-------------------------3-3-3-3-3-3-3-3-3-3-3-3-
|-2-2-2-2-2-2-2-2-2-2-2-2-1-1-1-1-1-1-1-1-1-1-1-1-2-2-2-2-2-2-2-2-2-2-2-2-
|-0-0-0-0-0-0-2-2-2-2-2-2-2-2-2-2-2-2-2-2-2-2-2-2-0-0-0-0-0-0-0-0-0-0-0-0-
|-------------------------2-2-2-2-2-2-2-2-2-2-2-2-------------------------
|-------------------------0-0-0-0-0-0-0-0-0-0-0-0-------------------------

 -------------------------|(x2)
 -2-2-2-2-2-2-2-2-2-2-2-2-|
 -2-2-2-2-2-2-2-2-2-2-2-2-|
 -2-2-2-2-2-2-2-2-2-2-2-2-|
 -------------------------|
 -------------------------|
pm.......................(IMPORTANT palm mute 2nd time only)



second verse 

|-----------------------------------------------2-2-2-2-2-2-2-2-2-2-2----| (x2)
|-2-2-2-2-2-2-----------------------------------3-3-3-3-3-3-3-3-3-3-3--2-|
|-2-2-2-2-2-2-1-1-1-1-1-1-----------------------2-2-2-2-2-2-2-2-2-2-2--2-|
|-2-2-2-2-2-2-2-2-2-2-2-2-4-4-4-4-4-4-4-4-4-4-4-0-0-0-0-0-0-0-0-0-0-0--2-|
|-------------2-2-2-2-2-2-4-4-4-4-4-4-4-4-4-4-4--------------------------|
|-------------0-0-0-0-0-0-2-2-2-2-2-2-2-2-2-2-2--------------------------|



Fill
 ---------------------------------------------|(x1)
 -2-2-2-2-2-2-2-2-2-2-2-2-2-2-2-2-2-2-2-2-2-2-|
 -2-2-2-2-2-2-2-2-2-2-2-2-2-2-2-2-2-2-2-2-2-2-|
 -2-2-2-2-2-2-2-2-2-2-2-2-2-2-2-2-2-2-2-2-2-2-|
 ---------------------------------------------|
 ---------------------------------------------|
pm...........................................



bridge

|----2-----2-----2-----2-----2-----2-----2-|
|-2--3--2--3--2--3--2--3--2--3--2--3--2--3-|
|-2--2--2--2--2--2--2--2--2--2--2--2--2--2-|
|-2--0--2--0--2--0--2--0--2--0--2--0--2--0-|
|------------------------------------------|
|------------------------------------------|



Fill
 ---------------------------------------------|(x1)
 -2-2-2-2-2-2-2-2-2-2-2-2-2-2-2-2-2-2-2-2-2-2-|
 -2-2-2-2-2-2-2-2-2-2-2-2-2-2-2-2-2-2-2-2-2-2-|
 -2-2-2-2-2-2-2-2-2-2-2-2-2-2-2-2-2-2-2-2-2-2-|
 ---------------------------------------------|
 ---------------------------------------------|
pm...........................................


chorus

|-2-2-2-2-2-2-------------------------------------2-2-2-2-2-2-2-2-2-2-2-2-
|-3-3-3-3-3-3-2-2-2-2-2-2-------------------------3-3-3-3-3-3-3-3-3-3-3-3-
|-2-2-2-2-2-2-2-2-2-2-2-2-1-1-1-1-1-1-1-1-1-1-1-1-2-2-2-2-2-2-2-2-2-2-2-2-
|-0-0-0-0-0-0-2-2-2-2-2-2-2-2-2-2-2-2-2-2-2-2-2-2-0-0-0-0-0-0-0-0-0-0-0-0-
|-------------------------2-2-2-2-2-2-2-2-2-2-2-2-------------------------
|-------------------------0-0-0-0-0-0-0-0-0-0-0-0-------------------------

 -------------------------|(x2)
 -2-2-2-2-2-2-2-2-2-2-2-2-|
 -2-2-2-2-2-2-2-2-2-2-2-2-|
 -2-2-2-2-2-2-2-2-2-2-2-2-|
 -------------------------|
 -------------------------|
pm.......................(IMPORTANT palm mute 2nd time only)



second verse 

|-----------------------------------------------2-2-2-2-2-2-2-2-2-2-2----| (x2)
|-2-2-2-2-2-2-----------------------------------3-3-3-3-3-3-3-3-3-3-3--2-|
|-2-2-2-2-2-2-1-1-1-1-1-1-----------------------2-2-2-2-2-2-2-2-2-2-2--2-|
|-2-2-2-2-2-2-2-2-2-2-2-2-4-4-4-4-4-4-4-4-4-4-4-0-0-0-0-0-0-0-0-0-0-0--2-|
|-------------2-2-2-2-2-2-4-4-4-4-4-4-4-4-4-4-4--------------------------|
|-------------0-0-0-0-0-0-2-2-2-2-2-2-2-2-2-2-2--------------------------|


outro

|-------------------2-2-2--------------|
|-2-2-2-------------3-3-3--------------|
|-2-2-2-1-1-1-------2-2-2-2:h3p2h3p2-2-|
|-2-2-2-2-2-2-4-4-4-0-0-0-2:---------2-|
|-------2-2-2-4-4-4-------2:---------2-|
|-------0-0-0-2-2-2--------------------|
Comments