Green Day - Give Me Novacaine Chords & Tabs

 

Give Me Novacaine Chords & Tabs

Green Day Chords & Tabs

Version: 4 Type: Tab 0 ratings
1 star 2 stars 3 stars 4 stars 5 stars
comments

Give Me Novacaine Tab

Standard Tuning

e|----------4-5-5-4--------------------|
B|-------7----------7------------------|
G|----6--------------------------------|
D|-4-----------------------------------|
A|-------------------------------------|
E|-------------------------------------|

e|------------------9------------------|
B|----------10---10---10---------------|
G|-------------9---------9-------------|
D|--/7-7-------------------------------|
A|-------------------------------------|
E|-------------------------------------|

^Repeat whole 3 times
[ Tab from: http://www.guitartabs.cc/tabs/g/green_day/give_me_novacaine_tab_ver_4.html ]
e|----------------10----10---------------------|
B|----------12--------------12-----------------|
G|-------------11---------------11---11-11-11--|
D|--/9-9---------------------------------------|
A|---------------------------------------------|
E|---------------------------------------------|

e|---------------------------------------|
B|--9999-10101010--12121212121212121212--|
G|--9999--9-9-9-9---9-9-9-9-9-9-9-9-9-9--|         Note: "10"s and "12"s
D|---------------------------------------|
A|---------------------------------------|
E|---------------------------------------|
Comments