Green Day - Give Me Novacaine Chords & Tabs

 

Give Me Novacaine Chords & Tabs

Green Day Chords & Tabs

Version: 3 Type: Bass Tab 0 ratings
1 star 2 stars 3 stars 4 stars 5 stars
comments

Give Me Novacaine Bass Tab

Give Me Novacaine By Green Day
Bassist: Mike Dirnt
x- chuck (put finger over fret, play string but don't push down on fret)
\- slide down
all the parts are in order. Enjoy!!
no bass in intro or first verse. bass comes in at 0:43.

Prechorus
G|------------------------------|
D|------------------------------|
A|5(x5)-------5(x5)-------------|  x1
E|------5(x16)-----5(x16)-------|

Chorus
G|----------------------------|
D|----------------------------|
A|5(x16)--------------7(x9)---|  x1
E|------2(x16)--7(x16)--------|

Verse
G|---------------------------------------------------------------|
D|---------------------------------------------------------------|
A|------------------------------------------------7--77-77-77-7--|  x3
E|5--55-55-55-5----2--22-22-22-2----7--77-77-77-7----------------|

Prechorus
G|--------------------------------|
D|--------------------------------|
A|5(x5)-------5(x5)---------------|  x1
E|------5(x16)-----5(x16)---------|
[ Tab from: http://www.guitartabs.cc/tabs/g/green_day/give_me_novacaine_btab_ver_3.html ]
Chorus
G|-----------------------------------|
D|-----------------------------------|
A|5(x16)--------------7(x9)----------| x1
E|------2(x16)--7(x16)-----xxxxxxxx--|

Bridge
G|---------------------------------------------------------------|
D|---------------------------------------------------------------|
A|-------------------------------------------------------7(x16)--|  x1
E|5(x32)-2(x16)-5(x16)-2(x16)-5(x16)-2(x16)-5(x16)-7(x16)--------|

Prechorus
G|---------------------------------|
D|---------------------------------|
A|5(x5)-------5(x5)\\--------------|  x1
E|------5(x16)-------5(x16)--------|


Chorus
G|----------------------------|
D|----------------------------|
A|5(x16)--------------7(x9)---|  x1
E|------2(x16)--7(x16)--------|

Verse
G|-------------------------------------------------------------|
D|-------------------------------------------------------------|
A|--------------------------------------------7-77-77-77-7-----|  x1
E|5-55-55-55-5----2-22-22-22-2----7-77-77-77-7-----------------|

End On
G|-----------|
D|-----------|
A|-----------| x1
E|5~~~~~~~~--


that's it! im pretty sure its right. this is my first tab please rate! Good Luck!
Comments