Green Day - Geek Stink Breath Chords & Tabs

 

Geek Stink Breath Chords & Tabs

Green Day Chords & Tabs

Version: 1 Type: Tab 0 ratings
1 star 2 stars 3 stars 4 stars 5 stars
comments

Geek Stink Breath Tab

Green Day, Geek Stink Breath.
 Tabbed by Sebastian Lapidus, sebaslap@yahoo.com.
  
Intro:

e|--------------------|
B|--------------------|
G|---------------4-4--|
D|-4-4--2-2-2-2--4-4--|
A|-4-4--2-2-2-2--2-2--|
E|-2-2--0-0-0-0-------|

Verse:
[ Tab from: http://www.guitartabs.cc/tabs/g/green_day/geek_stink_breath_tab.html ]
e|------------------------------------------|
B|------------------------------------------|
G|------------------------------------------|
D|-4-4-4-4-4-4-4-4-4-4--2-2-2-2-2-2-2-2-2-2-|
A|-4-4-4-4-4-4-4-4-4-4--2-2-2-2-2-2-2-2-2-2-|
E|-2-2-2-2-2-2-2-2-2-2--0-0-0-0-0-0-0-0-0-0-|
 pm_________________   pm________________

Chorus:

e|--------------------------------------------------|
B|--------------------------------------------------|
G|--------------------------------------------------|
D|-7-7-7-2--7-7-7-2--7-7-7-2--4-4-4-4-4-4-2-2-2-2-2-|
A|-7-7-7-2--7-7-7-2--7-7-7-2--4-4-4-4-4-4-2-2-2-2-2-|
E|-5-5-5-0--5-5-5-0--5-5-5-0--2-2-2-2-2-2-0-0-0-0-0-|
                              ^ X 2

Interlude:

Same as intro

Thats the whole song... VERY EASY! 
:: Ultimate Guitar Archive :: 
http://www.ultimate-guitar.com 



Comments