Green Day - Geek Stink Breath Chords & Tabs

 

Geek Stink Breath Chords & Tabs

Green Day Chords & Tabs

Version: 7 Type: Bass Tab 0 ratings
1 star 2 stars 3 stars 4 stars 5 stars
comments

Geek Stink Breath Bass Tab

----------------------------------------------------------------------------
			     Geek Stink Breath - Green Day
----------------------------------------------------------------------------

Intro
G|--------------------------------------------------------------------------|
D|--------------------------------------------------------------------------|
A|--------------------------------------------------------------------------|
E|-2-2-------------2-2-----------2-2-------------2-2------------------------|

Verse
G|--------------------------------------------------------------------------|
D|--------------------------------------------------------------------------|
A|-----1-2-----2-1----------------------------------------------------------|
E|-2-2-----0-0--------------------------------------------------------------|
[ Tab from: http://www.guitartabs.cc/tabs/g/green_day/geek_stink_breath_btab_ver_7.html ]
Pre Chorus
G|--------------------------------------------------------------------------|
D|--------------------------------------------------------------------------|
A|--------------------------------------------------------------------------|
E|-2-2-2-0---0-0-0----------------------------------------------------------|

Chorus
G|--------------------------------------------------------------------------|
D|--------------------------------------------------------------------------|
A|--------------------------------------------------------------------------|
E|-5-5-5-5-2-0--0-0---------------------------------------------------------|

Outro
G|--------------------------------------------------------------------------|
D|--------------------------------------------------------------------------|
A|-------7-7----------------------------------------------------------------|
E|-2-2-0-----7-7-0----------------------------------------------------------|
Comments