Green Day - Geek Stink Breath Chords & Tabs

 

Geek Stink Breath Chords & Tabs

Green Day Chords & Tabs

Version: 3 Type: Bass Tab 0 ratings
1 star 2 stars 3 stars 4 stars 5 stars
comments

Geek Stink Breath Bass Tab

Green Day -> Geek Stink Breath (Insomniac)	

Intro
G:------------------------------------------------------
D:-5-5-5-5----------------------------------------------
A:------------------------------------------------------
E:3-3-3-3-15-15h3---------------------------------------

Repeat 11x
G:------------------------------------------------------
D:------------------------------------------------------
A:--2h3--3h2--------------------------------------------
E:33---11-----------------------------------------------

G:------------------------------------------------------
D:-5-55-3--------3--------3--------3--------------------
A:-----1------0-1------0-1------0-1---------------------
E:3-3----1-1-3----1-1-3----1-1-3----1-1-1---------------

G:------------------------------------------------------
D:-5------5------5----3/5555----------------------------
A:------------------------------------------------------
E:3-1111-3-1111-3-1111----------------------------------

Repeat 9x
G:------------------------------------------------------
D:------------------------------------------------------
A:--2h3--3h2--------------------------------------------
E:33---11-----------------------------------------------

G:------------------------------------------------------
D:-5-55-3--------3--------3--------3--------------------
A:-----1------0-1------0-1------0-1---------------------
E:3-3----1-1-3----1-1-3----1-1-3----1-1-1---------------
[ Tab from: http://www.guitartabs.cc/tabs/g/green_day/geek_stink_breath_btab_ver_3.html ]
G:------------------------------------------------------
D:-5------5------5----3/5555----------------------------
A:------------------------------------------------------
E:3-1111-3-1111-3-1111----------------------------------

Repeat 8x
G:------------------------------------------------------
D:-5----------------------------------------------------
A:--88--------------------------------------------------
E:3---88------------------------------------------------

Repeat 7x
G:------------------------------------------------------
D:------------------------------------------------------
A:--2-3-3-2-0-------------------------------------------
E:33---1------------------------------------------------

G:------------------------------------------------------
D:-5-55-3--------3--------3--------3--------------------
A:-----1------0-1------0-1------0-1---------------------
E:3-3----1-1-3----1-1-3----1-1-3----1-1-1---------------

G:------------------------------------------------------
D:-5------5------5----3/5555----------------------------
A:------------------------------------------------------
E:3-1111-3-1111-3-1111----------------------------------

Repeat 4x
G:------------------------------------------------------
D:-5----------------------------------------------------
A:--88--------------------------------------------------
E:3---88------------------------------------------------

G:------------------------------------------------------
D:-5-5-5------------------------------------------------
A:------------------------------------------------------
E:3-3-3-------------------------------------------------

Figured out by Luiz Manzano (Brasil)
Comments