Green Day - Fod Chords & Tabs

 

Fod Chords & Tabs

Green Day Chords & Tabs

Version: 5 Type: Tab 0 ratings
1 star 2 stars 3 stars 4 stars 5 stars
comments

Fod Tab

   
Greenday
F.O.D
Daniel Rowley
zulu2002@hotmail.com  (i have msn)
Tuning: 1/2 a step down

hey greenday fans. as your so much wonderfull people im going to tab F.O.D for 
you guys. (i got it out the book) so its 100% right. im too lazy to tab the rythym 
(you work it out, i did the hard work of tabbing it all up)

Verse (part 1) 
|-------------------|
|-------------------|
|-------------------|
|--7-7-7-7-7-7-7----| repeat as many times you have too
|--7-7-7-7-7-7-7----| 
|--5-5-5-5-5-5-5----|
(somethings on my mind, its been so for some time)

(part 2)
|-------------------|
|-------------------|
|-------------------|
|--5-5-5-5-5-5-5----| 
|--5-5-5-5-5-5-5----|
|--3-3-3-3-3-3-3----|
(its time im on to you)
reapeat Verse. part 1,part 2.
[ Tab from: http://www.guitartabs.cc/tabs/g/green_day/fod_tab_ver_5.html ]
Chorus
|---------------------------------------|
|---------------------------------------|
|--9-9-9-------7-7-7--------------------|
|--9-9-9-5-5-5-7-7-7-7-7-7--------------|
|--7-7-7-5-5-5-5-5-5-7-7-7--------------|
|--------3-3-3-------5-5-5--------------|
(lets nuke the bridge we torched two thousand times before)

Chorus
|----------------------------------|
|----------------------------------|
|--9-9-9-------7-7-7-7-7-7---------|
|--9-9-9-5-5-5-7-7-7-7-7-7---------|
|--7-7-7-5-5-5-5-5-5-5-5-5---------|
|--------3-3-3---------------------|

(This time we'll blast it all to hell)

Repeat verse part 1 and 2. then play this.

|-----------------------|
|-----------------------|
|-7-7-7-7-7-7-7-7-7-7-7-|
|-7-7-7-7-7-7-7-7-7-7-7-|
|-5-5-5-5-5-5-5-5-5-5-5-|
|-----------------------|

|------------------------------------------------|
|------------------------------------------------|
|--7-7-6-------7-7-6-----------------------------|
|--7-7-6-7-7-7-7-7-6-5-5-5-----------------------|
|--5-5-4-7-7-7-5-5-4-5-5-5-----------------------|
|--------5-5-5-------3-3-3-----------------------|
(your just a fuck......)

repeat chorus then reapeat interlude and end with
7
7
5

belive me this is 100% right. i wouldent post it if i diddnt know it.
Comments