Green Day - Fod Chords & Tabs

 

Fod Chords & Tabs

Green Day Chords & Tabs

Version: 2 Type: Tab 0 ratings
1 star 2 stars 3 stars 4 stars 5 stars
comments

Fod Tab

   
Artist: Green Day 
Song: F.O.D.
Album: Dookie 
Tabber: Joe B.

I could be wrong, but I think that this is 100% correct.

Verse (clean)
  A
|---|           |---|          |---|
|---|           |---|          |---|
|---|           |---|          |---|
|-7-|48 times   |-5-|16 times  |-7-| 16 times
|-7-|           |-5-|          |-7-|
|-5-|           |-3-|          |-5-|

Chorus (clean)
|-----------------------------------------------------------------|
|-----------------------------------------------------------------|
|-9-9-9-9---------7-7-7-7---------9-9-9-9---------7-7-7-7-7-7-7-7-|
|-9-9-9-9-5-5-5-5-7-7-7-7-7-7-7-7-9-9-9-9-5-5-5-5-7-7-7-7-7-7-7-7-|
|-7-7-7-7-5-5-5-5-5-5-5-5-7-7-7-7-7-7-7-7-5-5-5-5-5-5-5-5-5-5-5-5-|
|---------3-3-3-3---------5-5-5-5---------3-3-3-3-----------------|
[ Tab from: http://www.guitartabs.cc/tabs/g/green_day/fod_tab_ver_2.html ]
End of Chorus the second time clean
|---------------------------------|
|---------------------------------|
|-7-7-7-7-7-7-7-7-7-7-7-7-7-7-7-7-|
|-7-7-7-7-7-7-7-7-7-7-7-7-7-7-7-7-|
|-5-5-5-5-5-5-5-5-5-5-5-5-5-5-5-5-|

Bridge (distortion)
|-----------------------------|
|-----------------------------|
|-9-7-7---------9-7-7---------|
|-9-7-7-5-5-5-5-9-7-7-7-7-7-7-|
|-7-5-5-5-5-5-5-7-5-5-7-7-7-7-|
|-------3-3-3-3-------5-5-5-5-|

Chorus 2 (distortion)
|-----------------------------------------------------------------|
|-----------------------------------------------------------------|
|-9-9-9-9---------7-7-7-7---------9-9-9-9---------7-7-7-7-7-7-7-7-|
|-9-9-9-9-5-5-5-5-7-7-7-7-7-7-7-7-9-9-9-9-5-5-5-5-7-7-7-7-7-7-7-7-|
|-7-7-7-7-5-5-5-5-5-5-5-5-7-7-7-7-7-7-7-7-5-5-5-5-5-5-5-5-5-5-5-5-|
|---------3-3-3-3---------5-5-5-5---------3-3-3-3-----------------|

Verse 2x
Chorus 2x
Verse 2x
Chorus 2x
Bridge 6x
Chorus 2 2x
Bridge 8x
Comments