Green Day - Fod Chords & Tabs

 

Fod Chords & Tabs

Green Day Chords & Tabs

Version: 1 Type: Tab 2 ratings
1 star 2 stars 3 stars 4 stars 5 stars
comments

Fod Tab

this is one of the best greenday songs ever!!!

although the notes are correct, you're figuring out the beat yourself



riff #1
e--------------------------------------
b--------------------------------------
g--------------------------------------
d---6---4------------------------------
a---6---4------------------------------
e---4---2------------------------------
[ Tab from: http://www.guitartabs.cc/tabs/g/green_day/fod_tab.html ]
riff #2
e--------------------------------------
b--------------------------------------
g---4-------6--------------------------
d---4---4---6---6----------------------
a---6---4---4---6----------------------
e-------2-------4----------------------

riff #3
e--------------------------------------
b--------------------------------------
g---6---5-------6---5-----------------
d---6---5---6---6---5---4--------------
a---4---3---6---4---3---4--------------
e-----------4-----------2--------------


as far as the order goes, it's pretty easy to figure out
this song was actually recorded in an e minor pitch, and if you want 
to play it like that just move each note up a fret, but it's 
easier just to do it like this
enjoy...


                                   -Chester
Comments