Green Day - Fashion Victim Chords & Tabs

 

Fashion Victim Chords & Tabs

Green Day Chords & Tabs

Version: 1 Type: Tab 3 ratings
1 star 2 stars 3 stars 4 stars 5 stars
comments

Fashion Victim Tab

   
Song: Fashion Victim
Band: Green Day

Standard Tuning

Intro:
------------|
------------|
-----------*|
-7-7-x-x-x-*|
-7-7-x-x-x--|
-5-5-x-x-x--|

Verse:
------------------------------
------------------------------
-----6-6----------------------
-4-4-6-6-4-4-x-x-x-4-4-x-x-x--
-4-4-4-4-4-4-x-x-x-4-4-x-x-x--
-2-2-----2-2-x-x-x-2-2-x-x-x--

[ Tab from: http://www.guitartabs.cc/tabs/g/green_day/fashion_victim_tab.html ]
 -----------------------------
|1.
------------------------------
------------------------------
-7-7-6-6----------------------
-7-7-6-6-2-2-x-x-x-2-2-x-x-x--
-5-5-4-4-2-2-x-x-x-2-2-x-x-x--
---------0-0-x-x-x-0-0-x-x-x--


 ------------------------
|2.
-------------------------
-------------------------
-7-7-6-6-9-9-9-9-9-9-9-9-
-7-7-6-6-9-9-9-9-9-9-9-9-
-5-5-4-4-7-7-7-7-7-7-7-7-
-------------------------

Chorus:
B5 /////////  E5 ////////
Comments