Green Day - Fashion Victim Chords & Tabs

 

Fashion Victim Chords & Tabs

Green Day Chords & Tabs

Version: 3 Type: Bass Tab 0 ratings
1 star 2 stars 3 stars 4 stars 5 stars
comments

Fashion Victim Bass Tab

   
Tabbed by: fenderbass1
Standard tuning (E,A,D,G)

Intro:
G---------------------------------------
D---------------------------------------
A----00xx00xx00xx00xx00xx00xx00-00-00-00
E---------------------------------------

Verse:
G-----------------------------
D-----------------------------		x4
A----00-44--------55-44-77xx77
E----------22xx22-------------

G---------------------------------------
D---------------------------------------
A----00xx00xx00xx00xx00xx00xx00-00-00-00
E---------------------------------------

G-----------------------------
D-----------------------------		x4
A----00-44--------55-44-77xx77
E----------22xx22-------------

Chorus:
G---------------------------------------------------------------------------
D---------------------------------------------------------------------------
A----2-2-2-2-2-2-2-0--------------------------------------------------------
E--------------------3-3-3-3-3-3-3-2-0-0-0-0-0-0-0-0-55-33-22-00-55-33-22-04
[ Tab from: http://www.guitartabs.cc/tabs/g/green_day/fashion_victim_btab_ver_3.html ]
Post chorus:
G---------------------------------------
D---------------------------------------
A----00xx00xx00xx00xx00xx00xx00-00-00-00
E---------------------------------------

Bridge:
G-----------------------------
D-----------------------------		x4
A----00-44--------55-44-77xx77
E----------22xx22-------------

Chorus
G---------------------------------------------------------------------------
D---------------------------------------------------------------------------
A----2-2-2-2-2-2-2-0--------------------------------------------------------
E--------------------3-3-3-3-3-3-3-2-0-0-0-0-0-0-0-0-55-33-22-00-55-33-22-00

G-----------------------------------------------
D-----------------------------------------------
A-----------------------------------------------
E----5-5-3-3-2-2-0-0-5-5-3-3-2-2-0-0-0-0-0-0-0-0

Post chorus/ending
G-----------------------------------------------------
D-----------------------------------------------------
A----00xx00xx00xx05-00xx00xx00xx05-00xx00xx00xx0505050
E-----------------------------------------------------
Comments