Green Day - Espionage Chords & Tabs

 

Espionage Chords & Tabs

Green Day Chords & Tabs

Version: 5 Type: Tab 0 ratings
1 star 2 stars 3 stars 4 stars 5 stars
comments

Espionage Tab

Green Day Espionage
From the Shenanigans
Track 6
Tuning: Standard
Tabbed by: Liam
Email: guitar_rocker_47@hotmail.com

Intro
e|-0----------------------------------------------------------------------------|
B|-0----------------------------------------------------------------------------|
G|-0----------------------------------------------------------------------------|
D|-2----------------------------------------------------------------------------|
A|-2----------------------------------------------------------------------------|
E|-0----------------------------------------------------------------------------|

Riff 1
e|------------------------------------------------------------------------------|
B|------------------------------------------------------------------------------|
G|------------------------------------------------------------------------------|
D|------------------------------------------------------------------------------|
A|----------2-2----1-1--0----0-0------------------------------------------------|
E|-0-0--3-3-----3---------3------3-2-1------------------------------------------|

Riff 2
e|------------------------------------------------------------------------------|
B|------------------------------------------------------------------------------|
G|------------------------------------------------------------------------------|
D|----------2-2----1-1--0----0-0------------------------------------------------|
A|-0-0--3-3-----3---------3------3-2-1------------------------------------------|
E|------------------------------------------------------------------------------|
[ Tab from: http://www.guitartabs.cc/tabs/g/green_day/espionage_tab_ver_5.html ]
Riff 3
e|------------------------------------------------------------------------------|
B|------------------------------------------------------------------------------|
G|------------------------------------------------------------------------------|
D|-9-9-9-9-9--10-10-10-10-10---9-9-9-9-9--10-10-10-10-10--9-9-9-9-9--9-9-9-9-9--|
A|-9-9-9-9-9--10-10-10-10-10---9-9-9-9-9--10-10-10-10-10--9-9-9-9-9--9-9-9-9-9--|
E|-7-7-7-7-7---8--8--8--8--8---7-7-7-7-7---8--8--8--8--8--7-7-7-7-7--7-7-7-7-7--|

e|------------------------------------------------------------------------------|
B|------------------------------------------------------------------------------|
G|----------------------------9-9-9-9-9-9-9-9-----------------------------------|
D|--10-10-10-10-10-10-10-10---9-9-9-9-9-9-9-9-----------------------------------|
A|--10-10-10-10-10-10-10-10---7-7-7-7-7-7-7-7-----------------------------------|
E|---8--8--8--8--8--8--8--8-----------------------------------------------------|

Riff 4
e|------------------------------------------------------------------------------|
B|------------------------------------------------------------------------------|
G|------------------------------------------------------------------------------|
D|-9-9-9-9-9--10-10-10-10-10---9-9-9-9-9--10-10-10-10-10--9-9-9-9-9--9-9-9-9-9--|
A|-9-9-9-9-9--10-10-10-10-10---9-9-9-9-9--10-10-10-10-10--9-9-9-9-9--9-9-9-9-9--|
E|-7-7-7-7-7---8--8--8--8--8---7-7-7-7-7---8--8--8--8--8--7-7-7-7-7--7-7-7-7-7--|

e|----------------------------------------------0-------------------------------|
B|----------------------------------------------0-------------------------------|
G|----------------------------9-9-9-9-9-9-9-9---0-------------------------------|
D|--10-10-10-10-10-10-10-10---9-9-9-9-9-9-9-9---2-------------------------------|
A|--10-10-10-10-10-10-10-10---7-7-7-7-7-7-7-7---2-------------------------------|
E|---8--8--8--8--8--8--8--8---------------------0-------------------------------|

Order
Intro  x1
Riff 1 x6
Riff 2 x2
Riff 1 x2
Riff 3 x1
Riff 1 x4
Riff 2 x2
Riff 1 x2
Riff 3 x1
Riff 1 x4
Riff 2 x2
Riff 1 x2
Riff 4 x1
Riff 1 x4
Riff 2 x2
Riff 1 x2
Riff 4 x1

TaDA! Hope you like it, cos I noticed other espionage tabs look a lot like mine but
none of them include the order of which you play it.
Comments