Green Day - Emenius Sleepus Chords & Tabs

 

Emenius Sleepus Chords & Tabs

Green Day Chords & Tabs

Version: 4 Type: Bass Tab 0 ratings
1 star 2 stars 3 stars 4 stars 5 stars
comments

Emenius Sleepus Bass Tab

Song:Emenius Sleepus
Band:Green Day
Album:Dookie!

Tune down half step

Verse:
Gb------------------------]
Db--99---99---99---77-----]
Ab----777--777--777--999--]
Eb------------------------]

Chorus:             X2
Gb----------------------|Gb------------------]
Db----------------------|Db------------------]
Ab--7-7-7-7-7-9-9-9-9-9-|Ab--7--7-9-9-9-9-9--]
Eb----------------------|Eb------------------]

Bridge/Outro:
Gb------------------------]
Db--99---99---99---77-----]
Ab----777--999--777--999--]
Eb------------------------]

Solo:
Gb------------------99-88-66--99-88-99-]
Db--99--99--99--99----------99---------]
Ab----99--99--99--99-------------------]
Eb-------------------------------------]
[ Tab from: http://www.guitartabs.cc/tabs/g/green_day/emenius_sleepus_btab_ver_4.html ]
Solo continued:
Gb----------------------------------------------]
Db--99--99--99--99------------------------------]
Ab----99--99--99--99--12-12-12-12-12--9-9-9-9-9-]
Eb----------------------------------------------]


=========================================================

Emenius Sleepus bass tab


Verse

G-------------------------------------------
D--9-8p7------9-8p7-----9-8p7-----7-8p9-----
A--------777--------777-------777-------999-
E-------------------------------------------


Chorus

G----------------------------------------------------
D-99---99---77---77--------9-9-9--7-7-7--------------
A----7----7----9----9-------------------9-9-9--7-7-7-
E-------------------------now I think i'm sick...----


Solo

G------------------------------------------
D-77--77--77--77-------99-77-------99-77---
A----7---7---7---7--77-------99-77-------7-
E------------------------------------------

By Kirk Hook
====
Comments