Green Day - Dry Ice Chords & Tabs

 

Dry Ice Chords & Tabs

Green Day Chords & Tabs

Version: 7 Type: Tab 0 ratings
1 star 2 stars 3 stars 4 stars 5 stars
comments

Dry Ice Tab

   
-------------------------------------------------------------------------------
                             DRY ICE - Green Day
-------------------------------------------------------------------------------
| /  slide up
| \  slide down
| h  hammer-on
| p  pull-off
| ~  vibrato
| +  harmonic
| x  Mute note

Tabbed By: Thedboy

Tuning: Down a quarter of a step. I know youíre thinking that is a bit of a weird
but Iím sure its correct. If you tune down half a step and play with the record, it
too low
but if you keep it at standard it doesnít sound right either, so if you tune it
and play it with the album, it should sound fine.

I decided that this site is in serious need of a tab of this song because this song is
good


Intro:
e|-------------------------------------------------------------------------|
B|-2-0-2-3-2-2-0-2-3-2-2-0-2-3-2-2-0-2-3-2---------------------------------|
G|-2~--------2~--------2~--------2~----------------------------------------|
D|-2~--------2~--------2~--------2~----------------------------------------|
A|-0~--------0~--------0~--------0~----------------------------------------|
E|-------------------------------------------------------------------------|

Verse:

e|---------------------------------------------------------------------------|
B|---------------------------------------------------------------------------|
G|---------6-6-666-7-7-777-----------------6-6-666-7-7-777-9-9-999-----------|
D|-7-7-777-6-6-666-7-7-777-7-7-777-7-7-777-6-6-666-7-7-777-9-9-999-----------|
A|-7-7-777-4-4-444-5-5-555-7-7-777-7-7-777-4-4-444-5-5-555-7-7-777-----------|
E|-5-5-555-----------------5-5-555-5-5-555-----------------------------------|

Chorus:

e|---------------------------------------------------------------------------|
B|---------------------------------------------------------------------------|
G|-7-7-777---------------7-7-777-9-9-999-------------------------------------|
D|-7-7-777-7-7-777--(X3)-7-7-777-9-9-999-------------------------------------|
A|-5-5-555-7-7-777-------5-5-555-7-7-777-------------------------------------|
E|---------5-5-555-----------------------------------------------------------|

Just after the first chorus, you play a filler thing which goes like this: (there are no words
in this bit)

e|---------------------------------------------------------------------------|
B|---------------------------------------------------------------------------|
G|---------6-6-666-7-7-777-----------------6-6-666-7-7-777-------------------|
D|-7-7-777-6-6-666-7-7-777-7-7-777-7-7-777-6-6-666-7-7-777-7-7-777-----------|
A|-7-7-777-4-4-444-5-5-555-7-7-777-7-7-777-4-4-444-5-5-555-7-7-777-----------|
E|-5-5-555-----------------5-5-555-5-5-555-----------------5-5-555-----------|

Bridge: (Come ease the pain thatís in my heartÖ)
[ Tab from: http://www.guitartabs.cc/tabs/g/green_day/dry_ice_tab_ver_7.html ]
e|---------------------------------------------------------------------------|
B|---------------------------------------------------------------------------|
G|-----------------7-7-777-777-----------------7-7-777-9-9-999---------------|
D|-7-7-777-4-4-444-7-7-777-777-7-7-777-4-4-444-7-7-777-9-9-999---------------|
A|-7-7-777-4-4-444-5-5-555-555-7-7-777-4-4-444-5-5-555-7-7-777---------------|
E|-5-5-555-2-2-222-------------5-5-555-2-2-222-------------------------------|

Solo:
Behind this a second guitar plays the verse chords twice. The solo looks scary, but its not
too bad.

e|------------------------5-----5-----5-----5---------------------------------|
B|--------------------------7-8---8-7---7-8---8-8-----------------------------|
G|-2-2222-4-4b-2222-------------------------------2-2222-4-2-4b-4-2-----------|
D|------------------------------------------------------------------4-44-2h4p2|
A|----------------------------------------------------------------------------|
E|----------------------------------------------------------------------------|

e|--------------------------2-------------------14-17b-14-14------14-14------|
B|------------------------2----------14-17b-17b---------------17b------------|
G|-------2---2h4p2---2-4b-----16---------------------------------------------|
D|---2-4---4-------4---------------------------------------------------------|
A|-4-------------------------------------------------------------------------|
E|---------------------------------------------------------------------------|

e|-17-16-14----------------------------------14--14--------------------------|
B|----------17-15-14-------------------------14--14--------------------------|
G|-------------------16-141414-16-141414-16b---------------------------------|
D|---------------------------------------------------------------------------|
A|---------------------------------------------------------------------------|
E|---------------------------------------------------------------------------|

e|----5---555-------2-----2----------10-----10-----------12----12------------|
B|--5---5-555---------2-----2----------10-----10-----------12----12----------|
G|----------------3-----3---------11-----11-----------13-----13--------------|
D|---------------------------------------------------------------------------|
A|---------------------------------------------------------------------------|
E|---------------------------------------------------------------------------|

Order: Pay attention here, its quite complicated:
Intro
Verse (x2)
Chorus
Filler
Verse (x4)
Chorus (x2)
Bridge (x2)
Solo
Intro
Verse (x2)
Chorus (x2)
Bridge (x2)

End on:
e----|
B----|
G-9~-|
D-9~-|
A-7~-|
E----|

Lyrics:

Verse:
Late last night I had a dream
And she was in it again
She and I were in the sky
Flying hand in hand
I woke up in a cold sweat
Wishing she was by my side
Praying that she'll dry tears
Left on my face I've cried

Chorus:
Oh I love her
Keep dreaming of her
Will I understand
If she wants to be my friend

Verse:
I'll send a letter to that girl
Asking her to be my own
But my pen is writing wrong
So I'll say it in a song
Oh I love you more right now
More than I've ever loved before
Here's those words straight from these lips
I'll need you forever more.

Bridge:
Come ease the pain thatís in my heartÖ
Come ease the pain that's in my heart...
Come ease the pain that's in my heart...
Come ease the pain that's in my heart...
===============================================================================
Comments