Green Day - Dry Ice Chords & Tabs

 

Dry Ice Chords & Tabs

Green Day Chords & Tabs

Version: 5 Type: Tab 0 ratings
1 star 2 stars 3 stars 4 stars 5 stars
comments

Dry Ice Tab

Tabbed by: Sam Champness
Email:

Tuning:

e|-----------------------------------------------5--------5---------|
B|----------------------------------4-/-7(7)-------7-8------8-7----|
G|-2--2-2-2-2--4-4b-(4)--2-2--2-2-----------------------------------|
D|------------------------------------------------------------------|
A|------------------------------------------------------------------|
E|------------------------------------------------------------------|

e|--5-------5-------------------------------------------------------|
B|-----7-8-----8-8--------------------------------------------------|
G|-------------------2--2-2-2-2--4-24b---4--2----------------------|
D|----------------------------------------------4-4---2---4-\-2-----|
A|------------------------------------------------------------------|
E|------------------------------------------------------------------|

e|-------------------------------------2----------------------------|
B|----------------------------------2------------------------14-17b-|
G|-----------2-----2-4-2------24b-----------4b-(4)-/--16b----------|
D|-----2--4-----4----------4----------------------------------------|
A|-4----------------------------------------------------------------|
E|------------------------------------------------------------------|
[ Tab from: http://www.guitartabs.cc/tabs/g/green_day/dry_ice_tab_ver_5.html ]
e|-------------14-17b(17)-17--14---------14-14--17-16-14-----------|
B|-17b----17-----------------------17b---------------------17-15-14-|
G|------------------------------------------------------------------|
D|------------------------------------------------------------------|
A|------------------------------------------------------------------|
E|------------------------------------------------------------------|


e|-----------------------------------------14-----------------------|
B|-----------------------------------------14--14--------14-(14)----|
G|-16--14-14-14-16-\-14-14-1416b---(16)-----------16b-------------|
D|------------------------------------------------------------------|
A|------------------------------------------------------------------|
E|------------------------------------------------------------------|

e|----------5---5---5-5-5----------2------2----------10-------------|
B|-\-5---5----5-----5-5-5-\-2-(2)-----2------2-----------10---------|
G|--------------------------------------3------3---11--------11-----|
D|------------------------------------------------------------------|
A|------------------------------------------------------------------|
E|------------------------------------------------------------------|

e|-10-----------------12-------12-----------------------------------|
B|-----10----------------12-------12--------------------------------|
G|---------11-11-/-13-------13-------13-----------------------------|
D|------------------------------------------------------------------|
A|------------------------------------------------------------------|
E|------------------------------------------------------------------|
Comments