Green Day - Dry Ice Chords & Tabs

 

Dry Ice Chords & Tabs

Green Day Chords & Tabs

Version: 1 Type: Tab 0 ratings
1 star 2 stars 3 stars 4 stars 5 stars
comments

Dry Ice Tab

   
Title: Dry Ice
Artist: Green Day
Album: 1039/Smoothed Out Slappy Hours
Track: 16

This is very easy...

Verse
|-------------------------------------------------
|-------------------------------------------------
|-------------5-5-5-5-5-5-6-6-6-6-6-6-8-8-8-8-8-8-
|-6-6-6-6-6-6-5-5-5-5-5-5-6-6-6-6-6-6-8-8-8-8-8-8-
|-6-6-6-6-6-6-3-3-3-3-3-3-4-4-4-4-4-4-6-6-6-6-6-6-
|-4-4-4-4-4-4-------------------------------------

-------------------------------------------------|
-------------------------------------------------|
-------------5-5-5-5-5-5-6-6-6-6-6-6-8-8-8-8-8-8-|
-6-6-6-6-6-6-5-5-5-5-5-5-6-6-6-6-6-6-8-8-8-8-8-8-|
-6-6-6-6-6-6-3-3-3-3-3-3-4-4-4-4-4-4-6-6-6-6-6-6-|
-4-4-4-4-4-4-------------------------------------|
[ Tab from: http://www.guitartabs.cc/tabs/g/green_day/dry_ice_tab.html ]
Chorus
|-------------------------------------------------
|-------------------------------------------------
|-6-6-6-6-6-6-------------6-6-6-6-6-6-------------
|-6-6-6-6-6-6-6-6-6-6-6-6-6-6-6-6-6-6-6-6-6-6-6-6-
|-4-4-4-4-4-4-6-6-6-6-6-6-4-4-4-4-4-4-6-6-6-6-6-6-
|-------------4-4-4-4-4-4-------------4-4-4-4-4-4-

-------------------------------------------------|
-------------------------------------------------|
-6-6-6-6-6-6-------------6-6-6-6-6-6-8-8-8-8-8-8-|
-6-6-6-6-6-6-6-6-6-6-6-6-6-6-6-6-6-6-8-8-8-8-8-8-|
-4-4-4-4-4-4-6-6-6-6-6-6-4-4-4-4-4-4-6-6-6-6-6-6-|
-------------4-4-4-4-4-4-------------------------|

Bridge
|-------------------------------------------------
|-------------------------------------------------
|-------------------------6-6-6-6-6-6-6-6-6-6-6-6-
|-6-6-6-6-6-6-3-3-3-3-3-3-6-6-6-6-6-6-6-6-6-6-6-6-
|-6-6-6-6-6-6-3-3-3-3-3-3-4-4-4-4-4-4-4-4-4-4-4-4-
|-4-4-4-4-4-4-1-1-1-1-1-1-------------------------

-------------------------------------------------|
-------------------------------------------------|
-------------------------6-6-6-6-6-6-8-8-8-8-8-8-|
-6-6-6-6-6-6-3-3-3-3-3-3-6-6-6-6-6-6-8-8-8-8-8-8-|
-6-6-6-6-6-6-3-3-3-3-3-3-4-4-4-4-4-4-6-6-6-6-6-6-|
-4-4-4-4-4-4-1-1-1-1-1-1-------------------------|

For the solo noodle around the 14 & 16 fret.

   J.A.B.

Comments