Green Day - Dont Wanna Fall In Love Chords & Tabs

 

Dont Wanna Fall In Love Chords & Tabs

Green Day Chords & Tabs

Version: 5 Type: Tab 0 ratings
1 star 2 stars 3 stars 4 stars 5 stars
comments

Dont Wanna Fall In Love Tab

   
-----------------------------------------------------------------
Don't Wanna Fall In Love - Green Day
-----------------------------------------------------------------
Tabbed by: Daniel T

Tuning: Standard

The other solo tab didn't sound very accurate so I decided to tab this (only the solo
because other people have all the other parts right).

e|----------------------------------|
B|----------------------------------|
G|-3--3-5-0-3----3-3--3-3-3-5-3---3-|
D|------------5-----------------5---|
A|----------------------------------|
E|----------------------------------|
[ Tab from: http://www.guitartabs.cc/tabs/g/green_day/dont_wanna_fall_in_love_tab_ver_5.html ]
e|-----------------------------------------------------|
B|-----------------------------------------------------|
G|-3-3--3-5-0-3----3-3--3-3-3-5-3---3--3-3-3-3-5-3---3-|
D|--------------5-----------------5----------------5---|
A|-----------------------------------------------------|
E|-----------------------------------------------------|

e|--------------------------8^---7^---6^---5^-|
B|------------7-6-----------------------------|
G|--------5-8-----8-5-------------------------|
D|-6--6-6-------------8---8----8----8----8----|
A|--------------------------------------------|
E|--------------------------------------------|

 
| / slide up
| \ slide down
| h hammer-on
| p pull-off
| ~ vibrato
| + harmonic
| x Mute note
Comments