Green Day - Do Da Da Chords & Tabs

 

Do Da Da Chords & Tabs

Green Day Chords & Tabs

Version: 3 Type: Tab 0 ratings
1 star 2 stars 3 stars 4 stars 5 stars
comments

Do Da Da Tab

   
Green Day - Do da da
Tabbed by Bevlander

Standard Tuning

Intro
E|--------------------------------------------------------------|
B|--------------------------------------------------------------|
G|----------8-8-8-----------8-8-8-----------8-8-8--6-6-6--8-8-8-|
D|-6-6-6-6--8-8-8--6-6-6-6--8-8-8--6-6-6-6--8-8-8--6-6-6--6-6-6-|
A|-6-6-6-6--6-6-6--6-6-6-6--6-6-6--6-6-6-6--6-6-6--4-4-6--6-6-6-|
E|-4-4-4-4---------4-4-4-4---------4-4-4-4----------------------|

Verse
E|---------------------------------------------|
B|---------------------------------------------|
G|----------8-8-8-8--6-6-6-6-----------8-8-8-8-|
D|-6-6-6-6--8-8-8-8--6-6-6-6--6-6-6-6--8-8-8-8-|  x2
A|-6-6-6-6--6-6-6-6--4-4-4-4--6-6-6-6--6-6-6-6-|
E|-4-4-4-4--------------------4-4-4-4----------|
[ Tab from: http://www.guitartabs.cc/tabs/g/green_day/do_da_da_tab_ver_3.html ]
Chorus
E|------------------------------------------------------------------------|
B|------------------------------------------------------------------------|
G|----------6-6-6-6--------------------8-8-8-8-----------6-6-6-6----------|
D|-3-3-3-3--6-6-6-6--3-3-3-3--6-6-6-6--8-8-8-8--3-3-3-3--6-6-6-6--3-3-3-3-|
A|-3-3-3-3--4-4-4-4--3-3-3-3--6-6-6-6--6-6-6-6--3-3-3-3--4-4-4-4--3-3-3-3-|
E|-1-1-1-1-----------1-1-1-1--4-4-4-6-----------1-1-1-1-----------1-1-1-1-|

E|--------------------------------------------------|
B|--------------------------------------------------|
G|----------8-8-8-----------8-8-8-----------8-8-8-8-|
D|-6-6-6-6--8-8-8--6-6-6-6--8-8-8--6-6-6-6--8-8-8-8-|
A|-6-6-6-6--6-6-6--6-6-6-6--6-6-6--6-6-6-6--6-6-6-6-|
E|-4-4-4-4---------4-4-4-4---------4-4-4-4----------|

End
E|---||
B|---||
G|---||
D|-6-||
A|-6-||
E|-4-||

Order

Intro
Verse
Chorus
Verse
Chorus
Intro x2
Chorus
End
Comments