Green Day - Desensitized Chords & Tabs

 

Desensitized Chords & Tabs

Green Day Chords & Tabs

Version: 1 Type: Tab 1 rating
1 star 2 stars 3 stars 4 stars 5 stars
comments

Desensitized Tab

   
Desensitized
Green Day
nimrod. (1997) (Japanese Version only)
Lyrics: Billie Joe Armstrong
Music: Green Day
Tuning: Normal
Notes: About 20 seconds of random noises before the music actually
starts, but it's a rather good song, wish they'd left it on the
North American version.

h = hammer-on
p = pull-off
b = bend
/ = slide up
\ = slide down
5 = power chord
[ Tab from: http://www.guitartabs.cc/tabs/g/green_day/desensitized_tab.html ]
Verse
   G5      C5      G5            (2nd rep of ending)
e|---------------------------------------------------------------|
B|-----------------------------------3---------------------------|
G|---------5--5--5-------------------4---------------------------|
D|-5--5-5--5--5--5-5---------------------------------------------|
A|-5--5-5--3--3--3-5---------------------------------------------|
E|-3--3-3----------3---------------------------------------------|

Chorus
   E5   G5  (x2)  A5   F5  (x2)  C5   G5   F5
e|---------------------------------------------------------------|
B|---------------------------------------------------------------|
G|-------------------------------5-------------------------------|
D|-2----5---------7----3---------5----5----3---------------------|
A|-2----5---------7----3---------3----5----3---------------------|
E|-0----3---------5----1--------------3----1---------------------|


Order

Intro (noises, verse riff x3 with pauses between reps)
Verse 1
Chorus
Verse 2
Verse 3 (Guitar 2 PMs G5)
Chorus
Verse 2 (Strum G5 between riff reps)
Chorus
End (verse riff x4)

Comments