Green Day - Coming Clean Chords & Tabs

 

Coming Clean Chords & Tabs

Green Day Chords & Tabs

Version: 4 Type: Tab 0 ratings
1 star 2 stars 3 stars 4 stars 5 stars
comments

Coming Clean Tab

   
Green Day, Coming Clean.
Tabbed by Sebastian Lapidus, sebaslap@yahoo.com.
  
COMING CLEAN   
              =by green day=

INTRO:

e--------------
B--------------
G--------------
D-8------5-----
A-8------5-----
E-6------3-----

VERSE:

e--------------------------------------
B--------------------------------------
G--------------------------------------
D-8-8-8-8-8-8-8-8-5-5-5-5-5-5-5-5-5----
A-8-8-8-8-8-8-8-8-5-5-5-5-5-5-5-5-5----
E-6-6-6-6-6-6-6-6-3-3-3-3-3-5-3-3-3----
             

CHORUS:
[ Tab from: http://www.guitartabs.cc/tabs/g/green_day/coming_clean_tab_ver_4.html ]
e---------------------------------------------------
B---------------------------------------------------
G-10-10-10-10-10-10-10-10-10-10-6-6-6-6-6-6-6-6-6-6-
D-10-10-10-10-10-10-10-10-10-10-6-6-6-6-6-6-6-6-6-6-
A-8--8--8--8--8--8--8--8--8--8--8-8-8-8-8-8-8-8-8-8-
E---------------------------------------------------

REPEAT VERSE

REPEAT CHORUS

INTERLUDE

e-6-6-6-6-6-6-6-6-6-3-3-3-3-3-3-3-3-3-3-3-3-
B-6-6-6-6-6-6-6-6-6-3-3-3-3-3-3-3-3-3-3-3-3-
G-6-6-6-6-6-6-6-6-6-4-4-4-4-4-4-4-4-4-4-4-4-
D-8-8-8-8-8-8-8-8-8-5-5-5-5-5-5-5-5-5-5-5-5-
A-8-8-8-8-8-8-8-8-8-5-5-5-5-5-5-5-5-5-5-5-5-
e-6-6-6-6-6-6-6-6-6-3-3-3-3-3-3-3-3-3-3-3-3-

e---------------------------------------------------
B---------------------------------------------------
G-10-10-10-10-10-10-10-10-10-10-6-6-6-6-6-6-6-6-6-6-
D-10-10-10-10-10-10-10-10-10-10-6-6-6-6-6-6-6-6-6-6-
A-8--8--8--8--8--8--8--8--8--8--8-8-8-8-8-8-8-8-8-8-
E---------------------------------------------------

REPEAT VERSE

REPEAT CHORUS 
:: Ultimate Guitar Archive :: 
http://www.ultimate-guitar.com 

Comments