Green Day - Coming Clean Chords & Tabs

 

Coming Clean Chords & Tabs

Green Day Chords & Tabs

Version: 2 Type: Tab 2 ratings
1 star 2 stars 3 stars 4 stars 5 stars
comments

Coming Clean Tab

   
Tabbed by: Sam Champness
Email:
Song: Coming Clean
Tuning: Half Step Down

Main Riff
e|------|-----------------------|--------------------------|-->
B|------|-----------------------|--------------------------|-->
G|-4----|-4-4-4-4-4-------------|--------------------------|-->
D|-4--6-|-4-4-4-4-4--6-6-6-6-6--|-4-4-4-4-4--2-2-2-2-2-----|-->
A|-2--6-|-2-2-2-2-2--6-6-6-6-6--|-4-4-4-4-4--2-2-2-2-2-----|-->
E|----4-|------------4-4-4-4-4--|-2-2-2-2-2--0-0-0-0-0-X2--|-->

e|-----------------------|----------------------------|-|
B|-----------------------|----------------------------|-|
G|-4-4-4-4-4-------------|----------------------------|-|
D|-4-4-4-4-4--6-6-6-6-6--|-4-4-4-4-4--2-2-2-2-2-2-----|-|
A|-2-2-2-2-2--6-6-6-6-6--|-4-4-4-4-4--2-2-2-2-2-2-----|-|
E|------------4-4-4-4-4--|-2-2-2-2-2--0-0-0-0-0-0--x2-|-|

[ Tab from: http://www.guitartabs.cc/tabs/g/green_day/coming_clean_tab_ver_2.html ]
solo
e|----------------------------|-------------------------|
B|7-4-4--4-4-4-4--------------|-------------------------|
G|4-4-4--6-4-6-4--------------|-3-3--4-3-4-3------------|
D|4-4-4--4-4-4-4--6-6-6-6-6---|-4-4--4-4-4-4--2-2-2-2---|
A|----------------6-6-6-6-6---|---------------2-2-2-2---|
E|--------------------------X2|---------------0-0-0-0-X2|


Main Riff
e|-----------------------|--------------------------|-->
B|-----------------------|--------------------------|-->
G|-4-4-4-4-4-------------|--------------------------|-->
D|-4-4-4-4-4--6-6-6-6-6--|-4-4-4-4-4--2-2-2-2-2-----|-->
A|-2-2-2-2-2--6-6-6-6-6--|-4-4-4-4-4--2-2-2-2-2-----|-->
E|------------4-4-4-4-4--|-2-2-2-2-2--0-0-0-0-0-X2--|-->

e|-----------------------|---------------------------|-|
B|-----------------------|---------------------------|-|
G|-4-4-4-4-4-------------|---------------------------|-|
D|-4-4-4-4-4--6-6-6-6-6--|-4-4-4-4-4--2-2-2-2-2------|-|
A|-2-2-2-2-2--6-6-6-6-6--|-4-4-4-4-4--2-2-2-2-2------|-|
E|------------4-4-4-4-4--|-2-2-2-2-2--0-0-0-0-0---x2-|-|


Ending
e|--------------|
B|--------------|
G|-4---------4--|
D|-4---------4--|
A|-2--PAUSE--2--|
E|--------------|  ENJOY!!!!!

| /  slide up
| \  slide down
| h  hammer-on
| p  pull-off
| ~  vibrato
| +  harmonic
| x  Mute note
===============================================================================
Comments