Green Day - Church On Sunday Chords & Tabs

 

Church On Sunday Chords & Tabs

Green Day Chords & Tabs

Version: 2 Type: Tab 1 rating
1 star 2 stars 3 stars 4 stars 5 stars
comments

Church On Sunday Tab

Green Day, Church On Sunday (Arrangement for two guitars).
 Tabbed by Sebastian Lapidus, sebaslap@yahoo.com.
  
Intro/Verse 1:
Both guitars 

|------------------|
|------------------|
|--------7---------|
|-7------7-------2-|
|-7------5-------2-|
|-5--------------0-|

Pre chorus:

|------------------|
|------------------|
|----------------9-|
|-4------7-------9-|
|-4------7-------7-|
|-2------5---------|

Chorus 1:

|------------------|-------------|-----------------|
|------------------|-------------|-----------------|
|--------7-------9-|------7------|------7-----9----|
|-7------7-------9-|-7----7----2-|-7----7-----9----|
|-7------5-------7-|-7----5----2-|-7----5-----7----|
|-5----------------|-5---------0-|-5---------------|

Pre Verse 2:

Gr.1
|------------------|
|------------------|
|--------7---------|
|-7------7-------2-|
|-7------5-------2-|
|-5--------------0-|

Gr.2
|-----------------------|
|-----------------------|
|-9---------------------|
|-9-------7------9------|
|-7-------7------9------|
|---------5------7------|

Verse 2:
Both guitars

|------------------|
|------------------|
|--------7---------|
|-7------7-------2-| X 2
|-7------5-------2-|
|-5--------------0-|
[ Tab from: http://www.guitartabs.cc/tabs/g/green_day/church_on_sunday_tab_ver_2.html ]
        Gr. 1                  Gr. 2
Then ->|------------------|  |-----------------------|
       |------------------|  |-----------------------|
       |--------7---------|  |-9---------------------|
       |-7------7-------2-|  |-9------7-------9------|
       |-7------5-------2-|  |-7------7-------9------|
       |-5--------------0-|  |--------5-------7------|

Pre chorus 2:

 Gr. 1
|------------------|
|------------------|
|----------------9-|
|-4------7-------9-|
|-4------7-------7-|
|-2------5---------|

 Gr. 2
|------------------------|
|------------------------|
|-6-------9--------------|
|-6-------9------9-------|
|-4-------7------9-------|
|----------------7-------|

Chorus 2 ( same as chorus 1 but played twice)

Bridge:

Gr.1
|------------------|
|------------------|
|--------7---------|
|-7------7-------2-|
|-7------5-------2-|
|-5--------------0-|

Gr.2
|-----------------------|
|-----------------------|
|-9---------------------|
|-9-------7------9------|
|-7-------7------9------|
|---------5------7------|

Pre outro chorus:

|----------------------|
|----------------------|
|-------7------9-------| X 2
|-7-----7------9-------|
|-7-----5------7-------|
|-5--------------------|

Repeat chorus (outro chorus)

Finish on:

|---------------|
|---------------|
|---------------|
|-3------7------|
|-3------7------|
|-1------5------| 
:: Ultimate Guitar Archive :: 
http://www.ultimate-guitar.com 



Comments