Green Day - Church On Sunday Chords & Tabs

 

Church On Sunday Chords & Tabs

Green Day Chords & Tabs

Version: 1 Type: Tab 0 ratings
1 star 2 stars 3 stars 4 stars 5 stars
comments

Church On Sunday Tab

   
Name: Cary

Tabs: CHURCH ON SUNDAY by Green Day off of the new album "Warning"

This song isn't hard, just chords as usual.

Main Riff:
   A          D        E
E------------------------------
B------------------------------
G-----------7-7-7-7--9-9-9-9---
D--7-7-7-7--7-7-7-7--9-9-9-9---
A--7-7-7-7--5-5-5-5--7-7-7-7---
E--5-5-5-5---------------------

Chorus:
    F#       A         E
E------------------------------
B------------------------------
G--------------------9-9-9-9---
D--4-4-4-4--7-7-7-7--9-9-9-9---
A--4-4-4-4--7-7-7-7--7-7-7-7---
E--2-2-2-2--5-5-5-5------------
[ Tab from: http://www.guitartabs.cc/tabs/g/green_day/church_on_sunday_tab.html ]
Riff after Chorus is something like this:  A D E  A D E  A D E  A E

then go to the main riff again, then chorus,then the riff after the 
chours X2

Then, there's the middle jam part which is pretty much the same as the 
main riff

Middle Jam: X 4
       A                D         E
E---------------------------------------
B--2-2-2-2-2-3-2-2-2--7-7-7-7--9-9-9-9--
G--2-2-2-2-2-2-2-2-2--7-7-7-7--9-9-9-9--
D--2-2-2-2-2-2-2-2-2--7-7-7-7--9-9-9-9--
A--0-0-0-0-0-0-0-0-0--5-5-5-5--7-7-7-7--
E---------------------------------------

then, the riff after the chorus part X 2

then, end with this A E F A

Well I hope this isn't too confusing the way I wrote this, I wouldn't 
know, well anyway, questions, comment, requests, send to 
Bonham000@yahoo.com  More songs from "Warning" to come...Later yo
Comments