Green Day - Church On Sunday Chords & Tabs

 

Church On Sunday Chords & Tabs

Green Day Chords & Tabs

Version: 2 Type: Bass Tab 0 ratings
1 star 2 stars 3 stars 4 stars 5 stars
comments

Church On Sunday Bass Tab

   
Song:  Church on Sunday
Band:  Green Day
Album: Warning
Tabbed by:  Martin Cox (mcox@indy.net)

Another tab originally by Mooga (no e-mail given), which I felt needed to
be spruced up a bit.  This is one of the easiest Green Day songs ever,
surprisingly free of Mike Dirnt's trademarked fiddly little improvisations.
Song structure is easy to figure out, just listen and play along.  Watch
out for the time change on the final chorus.
[ Tab from: http://www.guitartabs.cc/tabs/g/green_day/church_on_sunday_btab_ver_2.html ]
Verse
G|----------------------------------|
D|----------------------------------|
A|-----------------5-5-555----------|
E|-5-5-5555-55-555---------0-00-000-|

Pre-Chorus
G|----------------------------------|
D|----------------------------------|
A|------------------7-7-7777-77-777-|
E|-2-2-222--5-5-555-----------------|

Chorus             (3x)
G|--------------------|
D|--------------------|
A|------------5-5-----|
E|-5-5-555-55-----0-0-|

G|-----------------|
D|-----------------|
A|-----------------|
E|-5-5-5555-000000-|
Comments