Green Day - Chump Chords & Tabs

 

Chump Chords & Tabs

Green Day Chords & Tabs

Version: 2 Type: Bass Tab 0 ratings
1 star 2 stars 3 stars 4 stars 5 stars
comments

Chump Bass Tab

Song Title: Chump
Artist: Green Day
----------------------------------------------

"Chump"
by Green Day of their album Dookie


part 1


G:------------------------------------------
D:---------------------2-2-2-(0)------------
A:------------------------------------------
E:----2-2-2-2-2--0-00-----------------------

the rhythm on these notes changes from time to time during the song
listen to the song to find out what I mean.


part 2 (bass solo)

[ Tab from: http://www.guitartabs.cc/tabs/g/green_day/chump_btab_ver_2.html ]
G:---------------------------------------
D:-------4-----4----2----2-0-------------
A:---------------------------------------
E:----22---22----00---00-----------------

After the bass solo jam on this note

G:----------
D:----------
A:---9------
E:----------

After this part just hit random open notes which lead into "Longview".

Thats all. Happy playing.

transcribed by Justin Webb  
							
													
Comments