Green Day - Chump Chords & Tabs

 

Chump Chords & Tabs

Green Day Chords & Tabs

Version: 1 Type: Bass Tab 2 ratings
1 star 2 stars 3 stars 4 stars 5 stars
comments

Chump Bass Tab

Song: Chump
Artist: Green Day
Album: Dookie

Intro/Bridge
Gb---------------------------------------
Db--------------1h2-------------------2--
Ab--2-2-2-2---2-------2-2-2-2------------
Eb----------0-------------------0-0-0----

Verse				      X2
Gb---------------------------------------|-------------------------------
Db--------------1h2-------------------2--|-------------------------------
Ab--2-2-2-2---2-------2-2-2-2------------|--2-2-2-2----------------------
Eb----------0-------------------0-0-0----|----------0-0-0-0-2-2-2-2-2-2--
[ Tab from: http://www.guitartabs.cc/tabs/g/green_day/chump_btab.html ]
Chorus		     X3 (Go straight into the verse/solo)
Gb---------------------|------------------
Db---------------------|------------------
Ab--0-0-0-0---2-2-2-2--|--0--0-0----------
Eb----------0----------|----------0--0-0--

Solo/Outro		 X18 (Play this till guitar stops)
Gb---------------------------|-----------------------------
Db------4-----4-----2---1h2--|--4-4-4-4-4-4-4-4-4-4-4-4-4--
Ab---------------------------|-----------------------------
Eb--2-2---2-2---0-0---0------|-----------------------------

Intro X1
Verse X2
Chorus X1
Bridge X1
Verse X2
Chorus X1
Bridge X2
Solo/Outro X1


This tab was created by Christian Mangs. Email me at: 
Shadow145@hotmail.com

Comments