Green Day - Christie Road Chords & Tabs

 

Christie Road Chords & Tabs

Green Day Chords & Tabs

Version: 1 Type: Tab 3 ratings
1 star 2 stars 3 stars 4 stars 5 stars
comments

Christie Road Tab

   
Song Title:Christie Road
Band: Green Day
Album: Kerplunk!                                                                               (PM)= Palm Mute
Tuning: Half step tuning down.
Advice: Easy Green Day song, just watch for the tempo change.
                            
                              Verse(x2)

   G5(PM) E(PM)   C5(PM)  Dsus2
eb|-------------------------0----------0------0--------------------
Bb|-------------------------3------3-----3------3------------------
Gb|-----------------5-------2--------2-----2------2----------------
Db|-3------2--------5-------0--0-----------------------------------
Ab|-3------2--------3----------------------------------------------
Eb|-5------0-------------------------------------------------------
      (Palm mute each cord except the Dsus2. Also hold the Dsus2 note while picking)

                            Chorus(x4)

      G5      C5       Dsus2
eb|---------------------0-----------0-------0----------------------
Bb|---------------------3-----3-------3-------3--------------------
Gb|-----------5---------2-------2-------2-------2------------------
Db|--5--------5---------0--0---------------------------------------
Ab|--5--------3-----------------------------------------------------
Eb|--3--------------------------------------------------------------
       (The 4th time around the just play the chord once and with the Dsus2 he does not pick) 

                         Bridge(x6)
[ Tab from: http://www.guitartabs.cc/tabs/g/green_day/christie_road_tab.html ]
    G5        F5       C5        F5
eb|---------------------------------------------------------------|
Bb|---------------------------------------------------------------|
Gb|--------------------5------------------------------------------|
Db|-5---------3--------5--------3---------------------------------|
Ab|-5---------3--------3--------3---------------------------------|
Eb|-3---------1-----------------1---------------------------------|  
       (Tempo change!)

                       Interlude(x8)

     G5       B5        F5
eb|----------------------------------------------------------
Bb|----------------------------------------------------------
Gb|-----------4----------------------------------------------
Db|-5---------4---------3------------------------------------
Ab|-5---------2---------3------------------------------------
Eb|-3-------------------1------------------------------------

                    2nd Interlude?(x3)


     C5    F5       G5                                 F5(PM)      C5(PM)
eb|---------------------------------------------------------------------
Bb|---------------------------------------------------------------------
Gb|-5----------------------Then after you do that 3 times-----------5---
Db|-5------3--------5------------------------------------3----------5---
Ab|-3------3--------5------------------------------------3----------3---
Eb|--------1--------3------------------------------------1--------------


Order:

Verse
Chorus
Verse
Chorus
Bridge
Interlude 1
Interlude 2
Bridge (End on Bridge)

 Questions? Comments? Complaints? Email me at Alex_Molzahn@hotmail.com or Aim me at MunglayKing

       
Comments