Green Day - Christie Road Chords & Tabs

 

Christie Road Chords & Tabs

Green Day Chords & Tabs

Version: 2 Type: Bass Tab 0 ratings
1 star 2 stars 3 stars 4 stars 5 stars
comments

Christie Road Bass Tab

Song Title: Christie Road
Artist: Green Day
----------------------------------------------

Christie Road
Off Kerplunk

Verse
-------------------------------------------------------------------------
-------------------------------------------------------------------------
-------------------------------------------------------------------3-3-3-
---3-3-3-3-3-3-3-3-3-3-3-3-3-3-3-3-1-1-1-1-1-1-1-1-1-1-1-1-1-1-1-1-------

-------------------------------------------------------------------------
-------------------------------------------------------------------------
---3-3-3-3-3-3-3-3-3-3-3-3-3-5-5-5-5-5-5-5-5-5-5-5-5-5-5-5-5-------------
-------------------------------------------------------------------------

Chorus
-------------------------------------------------------------------------
-------------------------------------------------------------------------
---3-3-3-3-----------5-5-5-5-5-5-5-5-3-3-3-3---------5-5-5-5-5-5-5-5-3-3-
-------------3-3-3-3-------------------------3-3-3-3---------------------
[ Tab from: http://www.guitartabs.cc/tabs/g/green_day/christie_road_btab_ver_2.html ]
-------------------------------------------------------------------------
-------------------------------------------------------------------------
---3-3---------5-5-5-5-5-5-5-5-3---5-------------------------------------
-------3-3-3-3-------------------3---------------------------------------

Bridge
-------------------------------------------------------------------------
-------------------------------------------------------------------------
-----------3-3-------------3-3-------------------------------------------
---3-3-1-1-----1-1-3-3-1-1-----1-1-3-3-3-3-2-2-2-2-1-1-1-1-3-3-3-3-2-2-2-

-------------------------------------------------------------------------
-------------------------------------------------------------------------
-------------------------------------------------------------------------
---2-1-1-1-1-1-1-1-1-1-1-1-1-1-1-1-1-1-1-1-1-3-3-3-3-3-3-3-3-3-3-3-3-3-3-

-------------------------------------------------------------------------
-------------------------------------------------------------------------
------------3-3----------------------------------------------------------
---3-3-/-21-----1-1-3-3-3-3-3-3-3-3-3-3----------------------------------

Submitted by:  Rob Da Bass Masta (BassManRob@aol.com)

Comments