Green Day - Christians Inferno Chords & Tabs

 

Christians Inferno Chords & Tabs

Green Day Chords & Tabs

Version: 6 Type: Tab 0 ratings
1 star 2 stars 3 stars 4 stars 5 stars
comments

Christians Inferno Tab

Green Day
Christian's Inferno

Standard Tuning


Pre-Chorus X1 (0:36)
e|-------------------------------------------------------------------------|
B|-------------------------------------------------------------------------|
G|-------------------------------------------------------------------------|
D|-7-7-7-7-7-7-7-7---------------------------------------------------------|
A|-7-7-7-7-7-7-7-7---------------------------------------------------------|
E|-5-5-5-5-5-5-5-5---------------------------------------------------------|

Chorus X4
e|-------------------------------------------------------------------------|
B|-------------------------------------------------------------------------|
G|-77777777----------77777777----------------------------------------------|
D|-77777777-77777777-77777777-55555555-------------------------------------|
A|-55555555-77777777-55555555-55555555-------------------------------------|
E|----------55555555----------33333333-------------------------------------|

Pre-verse X2
e|-------------------------------------------------------------------------|
B|-------------------------------------------------------------------------|
G|-4444444444444444----------55555555--------------------------------------|
D|-4444444444444444-55555555-55555555--------------------------------------|
A|-2222222222222222-55555555-33333333--------------------------------------|
E|------------------33333333-----------------------------------------------|

Verse 1 - No Guitar

Per-Chorus X1 (0:36)
e|-------------------------------------------------------------------------|
B|-------------------------------------------------------------------------|
G|-------------------------------------------------------------------------|
D|-7-7-7-7-7-7-7-7---------------------------------------------------------|
A|-7-7-7-7-7-7-7-7---------------------------------------------------------|
E|-5-5-5-5-5-5-5-5---------------------------------------------------------|

Chorus X4
e|-------------------------------------------------------------------------|
B|-------------------------------------------------------------------------|
G|-77777777----------77777777----------------------------------------------|
D|-77777777-77777777-77777777-55555555-------------------------------------|
A|-55555555-77777777-55555555-55555555-------------------------------------|
E|----------55555555----------33333333-------------------------------------|
[ Tab from: http://www.guitartabs.cc/tabs/g/green_day/christians_inferno_tab_ver_6.html ]
Pre-verse X2
e|-------------------------------------------------------------------------|
B|-------------------------------------------------------------------------|
G|-4444444444444444----------55555555--------------------------------------|
D|-4444444444444444-55555555-55555555--------------------------------------|
A|-2222222222222222-55555555-33333333--------------------------------------|
E|------------------33333333-----------------------------------------------|

Solo X4
e|-------------------------------------------------------------------------|
B|-1212----1212----1212----1212----1212----1313----131315151212----1212----|
G|-----1010----1010----1010----1010----1010----1212------------1010----1010|
D|-------------------------------------------------------------------------|
A|-------------------------------------------------------------------------|
E|-------------------------------------------------------------------------|

Chorus pt. 1 X4 (last time skip out the 3's and go to outro)
e|-------------------------------------------------------------------------|
B|-------------------------------------------------------------------------|
G|-77777777----------77777777----------------------------------------------|
D|-77777777-77777777-77777777-55555555-------------------------------------|
A|-55555555-77777777-55555555-55555555-------------------------------------|
E|----------55555555----------33333333-------------------------------------|

Outro 1 X4
e|-------------------------------------------------------------------------|
B|-------------------------------------------------------------------------|
G|-1212121212121212-1010101010101010---------------------------------------|
D|-1212121212121212-1010101010101010---------------------------------------|
A|-1010101010101010-8-8-8-8-8-8-8-8----------------------------------------|
E|-------------------------------------------------------------------------|

Outro 2 X1
e|-------------------------------------------------------------------------|
B|-------------------------------------------------------------------------|
G|-------------------------------------------------------------------------|
D|-12-12-10-10-12-12-10-10--9----------------------------------------------|
A|-10-10-8--8--10-10-8--8---9----------------------------------------------|
E|--------------------------7----------------------------------------------|
                            ^ One quick strum with Delay









Comments