Green Day - Christians Inferno Chords & Tabs

 

Christians Inferno Chords & Tabs

Green Day Chords & Tabs

Version: 4 Type: Bass Tab 0 ratings
1 star 2 stars 3 stars 4 stars 5 stars
comments

Christians Inferno Bass Tab

   
-------------------------------------------------------------------------------
			Christian's Inferno-Green Day
-------------------------------------------------------------------------------

Tabbed By :Stjimmy34	
Tuning:Standard

Verse 
G|---------------------------------------------------------------------------|
D|-----------------4-55555555------------------------------------------------|
A|-222222222222222------------33333333---(x5)--------------------------------|
E|---------------------------------------------------------------------------|

G|---------------------------------------------------------------------------|
D|-----------------4-5555555555555555----------------------------------------|
A|-222222222222222-----------------------------------------------------------|
E|------------------------------------5-5-5-5-5-5-5-5------------------------|

Chorus
G|---------------------------------------------------------------------------|
D|----------77777777---------------------------77777777----------55555555----|
A|-55555555----------5555555----------55555555----------55555555-------------|
E|---------------------------33333333----------------------------------------|
[ Tab from: http://www.guitartabs.cc/tabs/g/green_day/christians_inferno_btab_ver_4.html ]
G|---------------------------------------------------------------------------|
D|----------------------------5555555----------------------------55555555----|
A|-55555555----------55555555---------55555555----------55555555-------------|
E|----------55555555---------------------------55555555----------------------|

Verse

chorus

verse only two times

Guitar solo x4
G|---------------------------------------------------------------------------|
D|---------------------------------------------------------------------------|
A|-22222222-77777777-3333-8888-22222222--------------------------------------|
E|---------------------------------------------------------------------------|

Chorus

Outro
G|--------------------------------------------------------------------------------|
D|-33333333-555555555-33333333-55555555-33333333-55555555-33333333--55-33-55-33---|
A|------------------------------------------------------------------------------2-|
E|--------------------------------------------------------------------------------|


| /  slide up
| \  slide down
| h  hammer-on
| p  pull-off
| ~  vibrato
| +  harmonic
| x  Mute note
===============================================================================
Comments